Nickelback Tabs

Hangnail

3 versions

TAB

            Hangnail Tab by Nickelback


Band: Nickelback
Song: Hangnail
Album: SSU
Tuning: Drop D DADGBe

Intro

E|-----------------------------------------------------------------
B|-----------------------------------------------------------------
G|-----------------------------------------------------------------
D|--------------------------------------------------------------9--
A|--------------------------------------------------------------9--
D|-/99--6h7-6h76h76h7-11-99--6h7-6h76h76h7-14-1212--6h7-6h76h76h9--

E|-----------
B|-----------
G|-9-7-7-6-7-
D|-9-7-7-6-7-
A|-7-5-7-6-7-
D|-----------

Verse

E|----------------
B|----------------
G|----------------
D|--4-4-5-6-11-99-
A|-4-4-5-6--11-99-
D|----------11-99-

Chorus

E|----------------------------
B|----------------------------
G|-4-4-4--7-7-7--2-2-2-22-2-2-
D|-4-4-4--7-7-7--2-2-2-22-2-2-
A|-2-2-2--7-7-7--2-2-2-22-2-2-
D|----------------------------

Solo

E|----------------
B|-4/5\4----------
G|----------------
D|-------7-5555-3-
A|-------5-3333-1-
D|----------------    

Added On December 5th, 2013

SHARE

Comments

blog comments powered by Disqus

VERSIONS

ADVERTISEMENT