Nine Inch Nails Tabs

All The Love In The World

2 versions

TAB

            All The Love In The World Tab by Nine Inch Nails


1. All the Love in the World
   Transcribed by somewhatdamaged (Eonblueaurora785@aol.com)
Tuning: Drop D

Main Riff (Not guitar, this is bass)
E|-----------------------------------------------------------------||
B|-----------------------------------------------------------------||
G|-----------------------------------------------------------------||
D|-----------------------------------------------------------------||
A|-----------------------------------8-8-8-8-----------------------||
D|----10-10-10-10-10-10-8-10-11-10-------------8-8-8-8-------------||

Piano Fill 1 at “Why do you get all the love in the world”
E|-----------------------------------------------------------------||
B|-----------------------------------------------------------------||
G|-----------------------------------------------------------------||
D|---12-10-9-9-10-12-13-12-10-9-(9)--------------------------------||
A|-----------------------------------------------------------------||
D|-----------------------------------------------------------------||

Piano Fill 2 at “All the jagged edges disappear”
E|---13-13--------------------12-12--------------------------------||
B|----------------13-13-15-15--------------------------------------||
G|----------15-15--------------------------------------------------||
D|-----------------------------------------------------------------||
A|-----------------------------------------------------------------||
D|-----------------------------------------------------------------||

Guitar(distortion) at “Why do you get all the love in the world" 2nd time around
       -let ring and gradually bend to get the effect
E|-----------------------------------------------------------------||
B|-----------------------------------------------------------------||
G|--//12-----------------------------------------------------------||
D|--//x------------------------------------------------------------||
A|--//10-----------------------------------------------------------||
D|-----------------------------------------------------------------||

Piano Fill 3 when he sings higher at “Why do you get all the love in the world” and the 
changes; Keep playing for rest of song
E|-----------------------------------------------------------------||
B|-----------------------------------------------------------------||
G|-----------------------------------------------------------------||
D|---12-----17----15----14-----17---15-----------------------------||
A|-----------------------------------------------------------------||
D|-----------------------------------------------------------------||

Guitar comes in with muffled distortion (not very sure about this; those are 12’s and 10’s)
E|--------------------------------------------------------------------||
B|--------------------------------------------------------------------||
G|--------------------------------------------------------------------||
D|---3/5--5---5p3h5--8-8-8--3-3-3-3---10-10-10p8h10p8--101010-12121212||
A|---3/5--5---5p3h5--8-8-8—-3-3-3-3---10-10-10p8h10p8--8-8-8—-10101010||
D|---3/5--5---5p3h5--8-8-8--3-3-3-3---10-10-10p8h10p8-----------------||

End with this and let ring while Piano fill 3 continues to play
E|------------------------------------------------------------------||
B|------------------------------------------------------------------||
G|------------------------------------------------------------------||
D|---5--------------------------------------------------------------||
A|---5--------------------------------------------------------------||
D|---5--------------------------------------------------------------||    

Added On December 5th, 2013

SHARE

Comments

blog comments powered by Disqus

VERSIONS

ADVERTISEMENT