No Doubt Tabs

Hella Good

6 versions

TAB

            Hella Good Tab by No Doubt


THis is a very easy ND song and I recommend it for any beginner!

Drum Intro

At about (0:08) start intro
|------------------------------------------------------|
|------------------------------------------------------|
|------------------------------------------------------|
|------------------------------------------------------|  2x
|------------------------------------------------------|
|---3-3-3-0-3-4---4-4-4-0-4-3--------------------------|


The waves keep on crashing on me for some reason

|----10-10-10-10-10-11----11-11-11-11-11-10------------|
|----8--8--8--8--8--9-----9--9--9--9--9--8-------------|
|----7--7--7--7--7--8-----8--8--8--8--8--9-------------|
|------------------------------------------------------|
|------------------------------------------------------|
|------------------------------------------------------|

But your love keeps on coming like a thunderbolt

|----10-10-10-10-10-11----11-11-11-11-11-10------------|
|----8--8--8--8--8--9-----9--9--9--9--9--8-------------|
|----7--7--7--7--7--8-----8--8--8--8--8--9-------------|
|------------------------------------------------------|
|------------------------------------------------------|
|------------------------------------------------------|

Come here a little closer

|----10-10-10-10-10-11----11-11-11-11-11-10------------|
|----8--8--8--8--8--9-----9--9--9--9--9--8-------------|
|----7--7--7--7--7--8-----8--8--8--8--8--9-------------|
|------------------------------------------------------|
|------------------------------------------------------|
|------------------------------------------------------|

'Cause I wanna see you, baby, real close up

|----10-10-10-10-10-11----11-11-11-11-11-10------------|
|----8--8--8--8--8--9-----9--9--9--9--9--8-------------|
|----7--7--7--7--7--8-----8--8--8--8--8--9-------------|
|------------------------------------------------------|
|------------------------------------------------------|
|------------------------------------------------------|


CHORUS:
While Gwen sings play
|------------------------------------------------------|
|------------------------------------------------------|
|------------------------------------------------------|  2x
|------------------------------------------------------|
|------------------------------4-2-4-4-2---------------|
|--3-3-3-4---4-4-3---3-3-3-4-------------4-3-----------|

You've got me feeling hella good
So let's just keep on dancing
You hold me like you should
So I'm gonna keep on dancing


VERSE 2: same guitar pattern as first

You've got me feeling hella good
So let's just keep on dancing
You hold me like you should
So I'm gonna keep on dancing

Chorus:
Same as first except double
|------------------------------------------------------|
|------------------------------------------------------|
|------------------------------------------------------|  4x
|------------------------------------------------------|
|------------------------------4-2-4-4-2---------------|
|--3-3-3-4---4-4-3---3-3-3-4-------------4-3-----------|

You've got me feeling hella good
So let's just keep on dancing
You hold me like you should
So I'm gonna keep on dancing
You've got me feeling hella good
So let's just keep on dancing
You hold me like you should
So I'm gonna keep on dancing

Solo:
|------------------------------------------------------|
|-13-13^-11-13^-11^------------------------------------|
|--------------------12-12-10--------------------------| 2x
|------------------------------------------------------|
|------------------------------------------------------|
|------------------------------------------------------|
uh, yeah yeah

After Solo:
Only drums and keyboards
If you want to play it, just play something like the intro

Chorus:
Same as first except double
|------------------------------------------------------|
|------------------------------------------------------|
|------------------------------------------------------|  4x
|------------------------------------------------------|
|------------------------------4-2-4-4-2---------------|
|--3-3-3-4---4-4-3---3-3-3-4-------------4-3-----------|

You've got me feeling hella good
So let's just keep on dancing
You hold me like you should
So I'm gonna keep on dancing
You've got me feeling hella good
So let's just keep on dancing
You hold me like you should
So I'm gonna keep on dancing


AS Gwen says UH UH UH and Keep on dancing
play 
|------------------------------------------------------|
|------------------------------------------------------|
|------------------------------------------------------|  4x
|------------------------------------------------------|
|------------------------------4-2-4-4-2---------------|
|--3-3-3-4---4-4-3---3-3-3-4-------------4-3-----------|

Outro:
Just drums and keyboards


thats it    

Added On December 5th, 2013

SHARE

Comments

blog comments powered by Disqus

VERSIONS

ADVERTISEMENT