Notorious Big Tabs

Me And My Bitch

1 versions

TAB

            -------------------------------------------------------------------------------
                             Me & My Bitch - Notorious Big
-------------------------------------------------------------------------------
Tabbed by: Robotrock1
E-mail: 

Tuning: Standard EADGBE

I think this is right, sounds pretty spot on to me, please feel free to comment or make corrections. 



e|-12--12----9----10--10-----8-----------------------
B|-10--10----7-----8---8-----6-----------------------
G|-10--10----7-----8---8-----6-----------------------
D|-10--10----7-----8---8-----6-----------------------
A|--x---x----x-----x---x-----x-----------------------
E|--x---x----x-----x---x-----x-----------------------

e|-6--6----3-----4--4----7---------------------------
B|-4--4----1-----2--2----5---------------------------
G|-4--4----1-----2--2----5---------------------------
D|-4--4----1-----2--2----5---------------------------
A|-x--x----x-----x--x----x---------------------------
E|-x--x----x-----x--x----x---------------------------

e|---------------------------------------------------
B|---------------------------------------------------
G|---------------------------------------------------
D|---------------------------------------------------
A|---------------------------------------------------
E|---------------------------------------------------    

Added On June 23rd, 2014

SHARE

Comments

blog comments powered by Disqus

ADVERTISEMENT