Oar Tabs

Conquering Fools

2 versions

TAB

            Conquering Fools Tab by Oar


-------------------------------------------------------------------------------
			     Conquering Fools - O.A.R.
-------------------------------------------------------------------------------
Tabbed by:	Ross

Tuning:	EADGBe
Key:	        E-Major
Tone:	For the lead use a single coil neck pickup with the tone knob rolled back just a
                bit, through the clean channel with reverb.  Rhythm is played on an acoustic.

Rhythm:	Marc uses reggae style strumming, which means lots there is a lot muting and
                playing is done on upstrokes.  He plays in patterns of four strokes, and on the 
                third beat (upstroke) he plays the actual chord, and the rest is muted.  Using 
                barre chords makes this a heck of a lot easier.

Lead:	Richard plays in basically the same way as the rhythm above.  Use mostly 
                upstrokes focus on the highest three strings.  For solos, if you want to
                improvise, just use E Ionian (major) scale.

Intro
					   E		   C#m	 	   A		B
e|---------------------------------------------------------------------------|
B|---10s12--10--9--9h10-9----------------------------------------------------|
G|------------------------11--9--------------------9-----11--11b--9-----9----|
D|-----------------------------------------9-h11---------------------------9-|
A|---------------------------------------------------------------------------|
E|---------------------------------------------------------------------------|

					   E		   C#m	 	   A		B
e|---------------------------------------------------------------------------|
B|---10s12--10--9--9h10-9----------------------------------------------------|
G|------------------------11--9--------------------9-----11--11b--9----9-----|
D|-----------------------------------------9-h11--------------------11-----9-|
A|---------------------------------------------------------------------------|
E|---------------------------------------------------------------------------|

e|---------------------------------------------------------------------------|
B|----10s12--10--9--10--9--10------------------------------------------------|
G|---------------------------------------------------------------------------|
D|---------------------------------------------------------------------------|
A|---------------------------------------------------------------------------|
E|---------------------------------------------------------------------------|

Verse x2
	 E		    C#m		  A		      B
e|----x-7-x-7--x-x-x-x--4-x-4--x-x-x-x-x--5-x-5--x-x-x-x-x--7-x-7--x-x-x-x-x-|
B|----x-9-x-9--x-x-x-x--5-x-5--x-x-x-x-x--5-x-5--x-x-x-x-x--7-x-7--x-x-x-x-x-|
G|----x-9-x-9--x-x-x-x--6-x-6--x-x-x-x-x--6-x-6--x-x-x-x-x--8-x-8--x-x-x-x-x-|
D|----x-9-x-9--x-x-x-x--6-x-6--x-x-x-x-x--7-x-7--x-x-x-x-x--9-x-9--x-x-x-x-x-|
A|----x-7-x-7--x-x-x-x--4-x-4--x-x-x-x-x--7-x-7--x-x-x-x-x--9-x-9--x-x-x-x-x-|
E|----------------------------------------5---5-------------7-x-7------------|
   Set out on the voyage...		 Looking for the gold...
   It come to pass...			 If I didn’t quit


Chorus	x2
E		    C#m		  A		      B
e|----7--x-x---7--x-x---4--x-x---4--x-x---5--x-x---5--x-x---7--x-x---7--x-x--|
B|----9--x-x---9--x-x---5--x-x---5--x-x---5--x-x---5--x-x---7--x-x---7--x-x--|
G|----9--x-x---9--x-x---6--x-x---6--x-x---6--x-x---6--x-x---8--x-x---8--x-x--|
D|----9--x-x---9--x-x---6--x-x---6--x-x---7--x-x---6--x-x---9--x-x---9--x-x--|
A|----7--x-x---7--x-x---4--x-x---4--x-x---7--x-x---6--x-x---9--x-x---9--x-x--|
E|----------------------------------------5--------5--------7--------7-------|
   I hit the road...			 Looking for the origin...
   I didn’t notice when...			 Hoping that everything...

Interlude

E		    C#m		  A		      B
e|---------------------------------------------------------------------------|
B|---------------------------------------------------10s12-10-9-9h10-9-------|
G|---------------------------------------------------------------------11--9-|
D|--------------9---11---11b---9--------9------------------------------------|
A|-----9-h-11----------------------11----------------------------------------|
E|---------------------------------------------------------------------------|

E		    C#m		  A		      B
e|---------------------------------------------------------------------------|
B|---------------------------------------------------10s12-10-9-9h10-9-------|
G|---------------------------------------------------------------------11--9-|
D|--------------9---11---11b---9--------9------------------------------------|
A|-----9-h-11----------------------11----------------------------------------|
E|---------------------------------------------------------------------------|

Verse	x2
Chorus	x8

Solo - very easy and repetitive, I’m not going to tab it out (if you really
want it, ask me and I’ll put it down)

e|--12---12-12-12--12-12-------12--14---14---14--------14--------------------|
B|--12---12-12-12--12-12----12----------12---12---12---12--------------------|
G|---------------------------------------------------------------------------|
D|---------------------------------------------------------------------------|
A|---------------------------------------------------------------------------|
E|---------------------------------------------------------------------------|    

Added On December 5th, 2013

SHARE

Comments

blog comments powered by Disqus

VERSIONS

ADVERTISEMENT