Olli Schulz Tabs

Du Hattest Recht Mit Dem Ende Von Lost

1 versions

TAB

            -------------------------------------------------------------------------------
             Du hattest Recht mit dem Ende von Lost - Olli Schulz
-------------------------------------------------------------------------------

http://www.youtube.com/watch?v=bu2NAeSXvwQ

Das Timing über dem Intro ist nur ungefähr, einfach im Video anhören.
Zu den Strophen wird gleich gespielt wie beim Intro nur am Anfang wird ganz normal von G 
zu Em7 gewechselt.
Das letzte C am Ende der Strophen und nach dem Intro beim Wechsel zur Strophe wird
doppelt solange gespielt mit einer Variation auf der B Saite. Bei der letzten Strophe 
wird G und Em7 nur einmal angeschlagen.

Tuning: Standard capo 3
h: hammer on
h/p: hammer on pull off


Chords G 320033   Em7 022030   Am x02210   C 032010

Intro + interlude

    1     2     3     4     1     2     3

e|--3----------------------------------------------------------------------|
B|--3-----3--3--3-----3--1--1-----1--1-------------------------------------|
G|--------4--2---------------2h/p------------------------------------------|
D|--------------2-----2------2h---2--2--2--2-----2--2--2--2----------------|
A|--2-----2-----2-----2--------------3--3--3-----3--3--3--3----------------|
E|--3-----3----------------------------------------------------------------|

Intro

G            Em7                    Am      C
 Du hattest Recht mit dem Ende von Lost
G                Em7                    Am     C
 Es geht nicht darum was man soll oder muss
G             Em7                     Am      C
 Es geht nur darum seinen Frieden zu finden
G                 Em7                  Am      C     C
 Und die die man liebt, von Herzen zu lieben

 Du hattest Recht mit dem Ende von Lost
 Es geht nicht immer um den besonderen Schluss
 Es geht um den Anfang und das was passiert
 Und dass man die die man liebt nie vergisst und verliert

Interlude

 Du hattest Recht mit dem Ende von Lost
 Du hattest Recht mit dem Ende von Lost
 Ich vergesse den Schmerz, ich vergesse die Hater
 Es geht um den Kuss, wir sehen uns später    

Added On May 15th, 2014

SHARE

Comments

blog comments powered by Disqus

ADVERTISEMENT