Orange 9mm Tabs

Pretend Im Human

1 versions

TAB

            Pretend Im Human Tab by Orange 9mm


Orange 9mm, Pretend I'm Human
Vandef7@AOL.com
Artist: Orange 9mm
Song: Pretend I'm Human
Album: Pretend I'm Human

Tuning:Highest string to lowest
1)E
2)B
3)G
4)D
5)A
6)D

Intro& Verse:HE USES A FUZZ PETAL FOR THIS PART

E --------------------------------------------------
B --------------------------------------------------
G --------------------------------------------------
D --------------------------------------------------
A -----0--3--5--5------0--3--5--5------0--3--5--5--
D 0--4------------0--4------------0--4-------------

E -------------------------------------------------
B -------------------------------------------------
G -------------------------------------------------
D -------------------------------------------------
A -----0--3--5--5-slide up string -----------------
D 0--4---------------------------------------------

Chorus

E -------------------------------------------------
B -------------------------------------------------
G -------------------------------------------------
D 9-9-9--9-9-9--9-9-9--9-9-9--8-8-8--8-8-8--8-8-8--
A 7-7-7--7-7-7--7-7-7--7-7-7--6-6-6--6-6-6--6-6-6--
D -------------------------------------------------

E -------------------------------------------------
B -------------------------------------------------
G -------------------------------------------------
D 8-8-8--------------------------------------------
A 6-6-6--------------------------------------------
D -------------------------------------------------

Middle Verse

E -------------------------------------------------
B -------------------------------------------------
G -------------------------------------------------
D -------------------------------------------------
A 3--3--5--0--0--0--1--1--3--3--5--0--0--0--1--1---
D -------------------------------------------------

E -------------------------------------------------
B -------------------------------------------------
G -------------------------------------------------
D -------------------------------------------------
A 3--3--5--0--0--0--1--1--3--3--5--5--7--7--5--h7p5
D -------------------------------------------------

That's all.I'm pretty sure that's right for the most part. Just listen to the song and put the parts together.    

Added On December 5th, 2013

SHARE

Comments

blog comments powered by Disqus

ADVERTISEMENT