Panda Tabs

Nunca Nadie Nos Podra Parar

3 versions

TAB

            intro:
todo x2
Guitarra 1:

e------------------------|
b----18---21-----19---18-|
g-15---------------------|
d------------------------|
a------------------------|
e------------------------|

Bajo:
todo xsiempre

e--------------------------------------------|
b--------------------------------------------|
g--------------------------------------------|
d--------------------------------------------|
a--------------------------------------------|
e-6--666666--4--444444--2--222222--1--111111-|


guitarra 1:
esto x2

e--------------------------------------------------------------|
b--------------------------------------------------------------|
g-10--10--10--10--9--9--9--9--11--11--11--11--10--10--10--10---|
d---11--11--11--11-10-10-10-10--11--11--11--11--11--11--11--11-|
a--------------------------------------------------------------|
e--------------------------------------------------------------|

esto x1

e--------------------------------------------------------------|
b--------------------------------------------------------------|
g-11--11--11--11--10--10--10--10--10--10--10--10--9--9--9--9---|
d---11--11--11--11--11--11--11--11--11--11--11--11-10-10-10-10-|
a--------------------------------------------------------------|
e--------------------------------------------------------------|


e------------------------------------------------------------------|
b------------------------------------------------------------------|
g-11--11--11--11--10--10--10--10--11--11--13--13--11--11--13--13---|
d---11--11--11--11--11--11--11--11--11--11--11--11--11--11--11--11-|
a------------------------------------------------------------------|
e------------------------------------------------------------------|

(distorciĆ³n)guitarra 2:

x2

e----------------------------------------------------------------------------|
b----------------------------------------------------------------------------|
g----------------------------------------------------------------------------|
d8-8-8-8-8-8-8-8----6-6-6-6-6-6-6-6----4-4-4-4-4-4-4-4----3-3-3-3-3-3-3-3----|
a8-8-8-8-8-8-8-8-x2-6-6-6-6-6-6-6-6-2x-4-4-4-4-4-4-4-4-2x-3-3-3-3-3-3-3-3----|2x
e6-6-6-6-6-6-6-6----4-4-4-4-4-4-4-4----2-2-2-2-2-2-2-2----1-1-1-1-1-1-1-1----|

al mismo tiempo guitarra 1 con distorciĆ³n:

repites cuando guitarra 2 vuelva a empezar su parte

e------------------------------------------|
b------------------------------------------|
g-18--17--18--20--18----18--17--18--20--18-|
d------------------------------------------|
a------------------------------------------|
e------------------------------------------|

esto x2

e-------------------------------------------------------|
b-------------------------------------------------------|
g-18-15-18-15-17-13-17-13-18-15-18-15-17-18-20-18-17-18-|
d-------------------------------------------------------|
a-------------------------------------------------------|
e-------------------------------------------------------|

hecho por:Alejandro
P.S: la vida es un pollo o un camaron? -AMBOS-
CIC rocks!!!    

Added On December 16th, 2013

SHARE

Comments

blog comments powered by Disqus

VERSIONS

ADVERTISEMENT