Paolo Nutini Tabs

Jenny Dont Be Hasty

6 versions

TAB

            Jenny Dont Be Hasty Tab by Paolo Nutini


Intro

E||--------------------------|--------------------------||
B||--------------------------|--------------------------||
G||--------------------------|--------------------------||
D||--------------------------|--------------------------||
A||--4--4--4--4--4--4--4--4--|--4--4--4--4--4--4--4--4--||
E||--2--2--2--2--2--2--2--2--|--2--2--2--2--2--2--2--2--||
Just play it as many times as required


Main Riff

E||----------------------|------------------------|-----------------------|
B||----------------------|------------------------|-----------------------|
G||----------------------|------------------------|-----------------------|
D||---------6--7----6----|--4----x--4----x--x--x--|--4----x--2--2---------|
A||--4------4--5----4----|--2----x--2----x--x--x--|--2----x--0--0----2----|
E||--2-------------------|------------------------|------------------0----|


------------------------||
------------------------||
------------------------||
------------------------||
--4----x--4----4--4--4--||
--2----x--2----2--2--2--||

Chorus

E||----------------------|----------------------|---------------------|
B||----------------------|----------------------|---------------------|
G||----------------------|----------------------|---------------------|
D||----------------------|----------------------|---------------------|
A||--7------7--7------7--|--7------7--7----(9)*-|--4------4--4--------|
E||--5------5--5------5--|--5------5--5----(7)*-|--2------2--2--------|


---------------------||
---------------------||
---------------------||
--7------7--7--------||
--5------5--5--------||
---------------------||

*This is played quickly, then you move down to the 2nd fret and play. (It's like it's 
added as an afterthought as opposed to playing 5th fret again)

Note: You can play the Chorus with full chords.

(You'll need to play them the correct number of times however.)

A

E||--5--------||
B||--5--------||
G||--6--------||
D||--7--------||
A||--7--------||
E||--5--------||

B
E||--7--------||
B||--7--------||
G||--8--------||
D||--9--------||
A||--9--------||
E||--7--------||

F#m
E||--2--------||
B||--2--------||
G||--2--------||
D||--4--------||
A||--4--------||
E||--2--------||

D
E||--5--------||
B||--7--------||
G||--7--------||
D||--7--------||
A||--5--------||
E||-----------||


Layout:
Intro & Main Riff
Main Riff over Verse
Chorus
Main Riff over Verse
Chorus
Solo (Play A & F#m)*
Chorus x 2
Main Riff
End

*You can just play the notes on the top string instead of the full chord.

----------------
x - dead note (you don't have to play these notes, you could let the note ring over this bit)
----------------


It's quite easy to play, once you've sorted out the timing.

If there's anything wrong with it, let me know...
Ben    

Added On December 5th, 2013

SHARE

Comments

blog comments powered by Disqus