Paramore Tabs

Oh Star

2 versions

TAB

            Hello guys! This is the first tab that I've ever made in my 15 years of life. And, yes, 
only 15 yrs. old and I've been

playing guitar for nearly 2 years. Name's Douglas and you can call me Doug or whatever you think of.

I hope this tab can help you all. I'm not sure of some parts of Guitar 2. I just guessed 
through ear. Guitar 1 was

actually coincidence when I was playing an OPM song, it just happened. Lol.

The bridge was taken from the "Oh Star" tab from www.ultimate-guitar.com.

Suggestions/comments/corrections will be accepted glady. I hope you have a nice day. Thank you! :)

P.S. I'm from Cebu, Philippines. Rock on Cebuanos! And I love Hayley! :D

Song Title: "Oh Star"
Artist: Paramore
Album: All We Know Is Falling?
Year: 2005?
Total time of song: 3:47 mins
Time taken to be completed: 1 hr and 32 mins (funny, huh?)
Tuning: Standard on both guitars

[Verse I]

(Guitar 1 - I'm guessing electric; clean w/ acoustic effects)

	    C                   A

e|-----------------------------------------------|
B|--------0---------0------------0---------0-----|
G|----5-----5---5-----5------5-----5---5-----5---|  X  4
D|------5-----5---5-----5-------5-----5---5----5-|
A|--3---------------------3-0--------------------|
E|-----------------------------------------------|

(Guitar 2 - electric; clean, phaser?, flanger)(not sure)

     (0:06 & 0:19)       (0:12, 2nd part not included)

e|---*12---------------------------------------|
B|-------*12-------------5h6r5-5s3-------------|
G|-----------------------------------5---------|
D|---------------------------------------------|
A|---------------------------------------------|
E|---------------------------------------------|

[Refrain]

(Guitar 1 - distortion)


  FM7
e|----------------|
B|--1-1-x-1~~-----|
G|--2-2-x-2~~-----|   X  4
D|--3-3-x-3~~-----|                **
A|--x-x-x-x~~-----|               *  *
E|--1-1-x-1~~-----|              *    *                C(clean w/
                                   **                   acoustic effects)
                                   **              e|------------------------------------------||\
                               **              B|--------0---------0---------------------------||\ \
                                 *  *             G|----5-----5---5-----5---|  \ Both      X  4||\
                               **                 D|------5-----5---5-----5--------------------||\  /   guitars
                       **              A|--3---------------------------------------------------||\ /
                       **              E|------------------------------------------------------||\
(Guitar 2 - distortion)          *    *
                                  *  *
     C - D - E - G                 **

e|-----------------|              e|-------------------------------|
B|-----------------|              B|-------------------------------|
G|-5-\-7-\-9~-\-12-|   x  4   or  G|---5-slide-7-slide 9-slide-12~-|
D|-x---x---x-----x-|              D|-------------------------------|
A|-3-\-5-\-7~-\-10-|              A|-------------------------------|
E|-----------------|              E|-------------------------------|

[Chorus]

(Guitar 1 - distortion)(figure out the strumming)

      A        C(break,        F
                2nd chorus)

e|-----------------------------------------|
B|-----------------------------------------|
G|--------------5555555555-----------------|
D|-7777777777---5555555555---3333333333----|
A|-7777777777---3333333333---3333333333----|
E|-5555555555----------------1111111111----|


(Guitar 2 - distortion or max gain)(not sure)

      A        C(break,               F
                2nd chorus)

e|-8----------12-----------------12------12--------------12------12--------------12------12--------------12------12------|
B|---10---(x5)---8----(x5)----------8-------8---------------8-------8---------------8-------8---------------8-------8----|
G|------9----------9------10-10-------10------10--10-10-------10------10--10-10-------10------10--10-10-------10------10-|
D|-----------------------------------------------------------------------------------------------------------------------|
A|-----------------------------------------------------------------------------------------------------------------------|
E|-----------------------------------------------------------------------------------------------------------------------|

[Verse II]

(Guitar 1 - electric; clean w/ acoustic effects)

	    C                   A

e|-----------------------------------------------|
B|--------0---------0------------0---------0-----|
G|----5-----5---5-----5------5-----5---5-----5---|  X  5
D|------5-----5---5-----5------5-----5---5-----5-|
A|--3---------------------3-0--------------------|
E|-----------------------------------------------|

(Guitar 2 - electric; clean, phaser?, flanger)(not sure. again.)

     (1:24 & 1:37)       (1:31 & 1:44)

e|---*12---------------------------------------|
B|-------*12-------------5h6r5-5s3-------------|
G|-----------------------------------5---------|
D|---------------------------------------------|
A|---------------------------------------------|
E|---------------------------------------------|

[Refrain] then [Chorus]

[Bridge][taken from: www.ultimate-guitar.com/tabs/p/paramore/oh_star_crd.htm]

(Guitar 1 - distortion) will do C -- A -- C - F - G - A - C.

(Guitar 2 - distortion)

e|-15-15-15----------------------------19-19-19-------------------------|
B|----------17-17-17----------------------------20-20-20----------------|
G|-------------------17-17-17-16h17-17-------------------16-16-16-17-16-|
D|----------------------------------------------------------------------|
A|----------------------------------------------------------------------|
E|----------------------------------------------------------------------|

e|-19-19-19-------------------------------------------------------------|
B|----------20-20-20----------------------------------------------------|
G|-------------------16-16-16-17-16-------------------------------------|
D|----------------------------------3-3-3-3-5-5-5-5-7-7-7-7-10-10-10-10-|
A|----------------------------------3-3-3-3-5-5-5-5-7-7-7-7-10-10-10-10-|
E|----------------------------------1-1-1-1-3-3-3-3-5-5-5-5--8--8--8--8-|

Do this part with Guitar 2 while Guitar 1 plays Outro and then fade out.

e|-15-15-------------------------------------|
B|-------17-17-------------------------------|
G|-------------16-16-17-17-16-16-14-14-------|
D|-------------------------------------17~---|
A|-------------------------------------------|
E|-------------------------------------------|

[Outro]

(Guitar 1) - A -- C -- F --- A -- C -- F - C -- A

           - electric; clean w/ acoustic effects)

	    C                   A

e|-------------------------------------------------1~~---T-----|
B|--------0---------0------------0---------0-------1~~-----H---|
G|----5-----5---5-----5------5-----5---5-----5-----2~~-------E-|
D|------5-----5---5-----5------5-----5---5-----5---3~~---E-----|
A|--3---------------------3-0----------------------3~~-----N---|
E|-------------------------------------------------1~~-------D-|

Lyrics:


Oh star fall down on me
Let me make a wish upon you
Hold on, let me think
Think of what I'm wishing for

Wait, don't go away.
Just not yet.
Cause I thought,
I had it.
But I forget.

And I won't let you fall away,
From me.
You will never fade.
And I won't let you fall away.
From me.
You will never fade away from me.

And now I let my dreams consume me,
And tell me what to think.
But hold on,
Hold on.
What am I dreaming?

Wait, don't go away.
Just not yet.
Cause I thought,
That I had it.
But I forget.

And I won't let you fall away,
From me.
You will never fade away.
I won't let you fall away.
You will never fade away.

And I won't let you fall away.
You will never fade away.
And I won't let you fall away from me,
You will never...

Oh star fall down on me...    

Added On December 16th, 2013

SHARE

Comments

blog comments powered by Disqus

VERSIONS

ADVERTISEMENT