Parokya Ni Edgar Tabs

First Day Funk

3 versions

TAB

            First Day Funk Tab by Parokya Ni Edgar


song:first day funk
band/:parokya ni edgar
tabs by:melvin piego

kung hindi masyado katunog ung tabs na 2 yun ay sa kadahilanang naka effects c dar!!
pero katunog nmn try nyo!!!

stanza:
e---------------------------|----------------------------|
G---------------------------|--15-15-13-15-13------------|
B--14-14-12-14-12-----------|----------------14-12-14~~~-|
D----------------14-12-14~~~|----------------------------|
A---------------------------|----------------------------|
E---------------------------|----------------------------|

chorus:
e-------------------------|         |-5--3--5/----------------------|
G-------------------------| pde rn  |-5--3--5/----------------------|
B---14-12-14--------------|  gnito  |-------------------------------|
D---14-12-14--------------|         |-------------------------------|
A-------------------------|         |-------------------------------|
E-------------------------|         |-------------------------------|
bhla na kau kng ano gmitin nyo!!!

kung may alam kaung scale gmitin nyo try nyo fill-in pra maging mas funky ung kanta ok ba!!!

ung intro ng gitars ahhhhhh........try nyo ung chorus tab...isipin nyo lng 
may effects kau gmitin nyo lagyan nyo ng wawa bgy cla!! hahha

kung may comments txt nyo me:
09268181157----melvin nga pla!!!

paki rate ah!!! ^_^    

Added On December 5th, 2013

SHARE

Comments

blog comments powered by Disqus

VERSIONS

ADVERTISEMENT