Paul Gilbert Tabs

My Teeth Are A Drumset

1 versions

TAB

            -------------------------------------------------------------------------------
                             SONG NAME - Band Name
-------------------------------------------------------------------------------
Tabbed by: ImmaG_Baller
Email: jacob_hudgins35@yahoo.com

Tuning: Standard


                      Unfinished - will be complete soon



e|---------------------------------------------------------|
B|---------------------------------------------------------|
G|----------------------------2--2----2---2----------------|
D|-2---2----2---2-------------2--2----2---2----------------|
A|-0---0----0---0-------------0--0----0---0----------------|
E|--------3---3-----x--x--x---------3---3------------------|

e|---------------------------------------------------------------------|
B|---------------------------------------------------------------------|
G|---------------------------5-5b5.5-----------------------------7-5---|
D|-2r---5-7-5-7------5h7p5---5-5b5.5-----7~-5-7-5-7------5h7p5---7-5---|
A|-0r------------5-7-------7----------0--------------5-7-------7-------|
E|---------------------------------------------------------------------|

e|-----------------------------------------------------------------|
B|--------------------------------7--8--7--8--7--------------------|
G|----------------------------5-5-7--7--7--7--7--------------------|
D|---7~-5-7-5-[7]-----5h7p5---5-5-7--7--7--7--7-/10\---------------|
A|-0--------------5-7-------7-------------------/10\---------------|
E|-----------------------------------------------------------------|
        . . .


 Pre-solo
 |_________x2_________|
e|--------------------|--------------------------------------------------|
B|-5--r-\--7----8-----|-10---r-\--12----13----------15-15-------15-15----|
G|-7b9r-\--9b11-10b12-|-12b14r-\--14b16-15b17-17b19-------17b19----------|
D|--------------------|--------------------------------------------------|
A|--------------------|--------------------------------------------------|
E|--------------------|--------------------------------------------------|

e|-------------------------------------------------|
B|-19p15h19p15----19p15h19p15----------------------|
G|-------------17-------------17-17b19~------------|
D|-------------------------------------------------|
A|------------------------------very-fast----------|
E|--------------------------------bend-------------|


 Pre-solo Rhythm
e|------------------------------------------------------------------------|
B|------------------------------------------------------------------------|
G|---------------------------5-5b5.5-----------------------------7b7.5-5--|
D|-2r---5-7-5-7------5h7p5---5-5b5.5-----7~--5-7-5-7-----5h7p5---7b7.5-5--|
A|-0r------------5-7-------7----------0--------------5-7-------7----------|
E|------------------------------------------------------------------------|
        .                                    . .

e|-------------------------------------------------------------|
B|---------------------------------7--8--7--8--7---------------|
G|-----------------------------5-5-7--7--7--7--7---------------|
D|-2---7~--5-7-5-7-----5h7p5---5-5-7--7--7--7--7-/10\----------|
A|-0---------------5-7-------7-------------------/10\----------|
E|-------------------------------------------------------------|
           .
____________________________________________________________________

e|--------------------------------------------------|
B|--------------------------------------------------|
G|--------------------------------------------------|
D|---2---5~----7---10\----2---5~----7---10----------|
A|-0---3-----5---7------0---3-----5---7-------------|
E|-----------------------------------------3b5------|
   .   .     .   .      .   .     .   .


e|------------------------------------------------------------|
B|------------------------------------------------------------|
G|------------------------------------------------------------|
D|---2---5~----7---10\----2---5~----7---10----12----14----17\-|
A|-0---3-----5---7------0---3-----5---7----10----12----15-----|
E|------------------------------------------------------------|
   .   .     .   .      .   .     .   .     .     .     .


e|------------------------------------------------|
B|------------------------------------------------|
G|------------------------------------------------|
D|---2---5~----7---10\----2---5~----7---10--------|
A|-0---3-----5---7------0---3-----5---7-----------|
E|-----------------------------------------3b5----|
   .   .     .   .      .   .     .   .


e|-----------------------------------------------------------|
B|-----------------------------------------------------------|
G|-----------------------------------------------------------|
D|---2---5~----7---10\----2---5~----7---10----12----14----17-|
A|-0---3-----5---7------0---3-----5---7----10----12----15----|
E|-----------------------------------------------------------|
   .   .     .   .      .   .     .   .     .     .     .

e|-----------------------------|
B|-----------------------------|
G|----14----17----19----21\----|
D|-12----14----17----19--------|
A|-----------------------------|
E|-----------------------------|
    .     .     .     .


Pre-solo
 |_________x2_________|
e|--------------------|--------------------------------------------------|
B|-5--r-\--7----8-----|-10---r-\--12----13----------15-15-------15-15----|
G|-7b9r-\--9b11-10b12-|-12b14r-\--14b16-15b17-17b19-------17b19----------|
D|--------------------|--------------------------------------------------|
A|--------------------|--------------------------------------------------|
E|--------------------|--------------------------------------------------|

e|-------------------------------------------------|
B|-19p15h19p15----19p15h19p15----------------------|
G|-------------17-------------17-17b19~------------|
D|-------------------------------------------------|
A|------------------------------very-fast----------|
E|--------------------------------bend-------------|


 Pre-solo Rhythm
e|------------------------------------------------------------------------|
B|------------------------------------------------------------------------|
G|-----------------------------5-5--------------------------------7b7.5-5-|
D|-2--2-2-5-7-5-7------5h7p5---5-5-2--[7]~--5-7-5-[7]-----5h7p5---7b7.5-5-|
A|-0--0-0----------5-7-------7-----0------------------5-7-------7---------|
E|------------------------------------------------------------------------|
      . . .                                 . . .
.
e|----------------------------------------------------|
B|---------------------------------7--8--7--8--7------|
G|-----------------------------5-5-7--7--7--7--7------|
D|-2---7~--5-7-5-7-----5h7p5---5-5-7--7--7--7--7-/10\-|
A|-0---------------5-7-------7-------------------/10\-|
E|----------------------------------------------------|


 Solo
e|--5--8-5-7-8-7-5-----5-----------------------------------------------|
B|-----------------8-7---8-7-5-8p5-7-8-7p5-----5-------8p5-7-8-7p5-----|
G|-----------------------------------------8-7---8-7-5-------------8-7-|
D|---------------------------------------------------------------------|
A|---------------------------------------------------------------------|
E|---------------------------------------------------------------------|

e|-------------------------------------------------------------------------|
B|-5-------7p5-----[7]p5-----7p5-----8p5-7-8-7p5-----5---------------------|
G|---8-7-5-----7p5-------7p5-----7p5-------------8-7---8-7-5-[7]p5---------|
D|-----------------------------------------------------------------7-5-----|
A|-------------------------------------------------------------------------|
E|-------------------------------------------------------------------------|
                                                               . .

e|---------------------------------------------------------------------------|
B|---------------------------------------------------------------------------|
G|-7p5-----[7b7.5b7]p5-7p5-----7p5-----[7b7.5b7]p5-7p5-----7p5-----7p5-------|
D|-----7-5-----------------7-5-----7-5-----------------7-5-----7-5-----7-5---|
A|---------------------------------------------------------------------------|
E|---------------------------------------------------------------------------|
       . .                 . .     . .                 . .

e|---------------------------------------------|
B|------------------7b8.5--7~------------------|
G|-[7b9b7b9b7]------------------5b8--5~--------|
D|---------------------------------------------|
A|---------------------------------------------|
E|---------------------------------------------|

Riff
e|---------------------------------------------|
B|---------------------------------------------|
G|---------------------------------------------|
D|---------------------------------------------|
A|---2---5~----7---10\----2---5~----7---10-----|
E|-0---3-----5---7------0---3-----5---7----3b5-|
   .   .     .   .      .   .     .   .

e|------------------------------------------------------------|
B|------------------------------------------------------------|
G|------------------------------------------------------------|
D|------------------------------------------------------------|
A|---2---5~----7---10\----2---5~----7---10----12----14----17\-|
E|-0---3-----5---7------0---3-----5---7----10----12----15-----|
   .   .     .   .      .   .     .   .     .     .     .

e|---------------------------------------------|
B|---------------------------------------------|
G|---------------------------------------------|
D|---------------------------------------------|
A|---2---5~----7---10\----2---5~----7---10-----|
E|-0---3-----5---7------0---3-----5---7----3b5-|
   .   .     .   .      .   .     .   .

e|-----------------------------------------------------------------------|
B|-----------------------------------------------------------------------|
G|-----------------------------------------------------------------------|
D|--------------------------------------------------------------14----17-|
A|---2---5~----7---10\----2---5~----7---10----12----14----17-12----14----|
E|-0---3-----5---7------0---3-----5---7----10----12----15----------------|
   .   .     .   .      .   .     .   .     .     .     .     .     .

e|----------------------------15----17----19----22\-|
B|----------------15----17-12----15----17----20-----|
G|----14----16-12----14-----------------------------|
D|-12----14-----------------------------------------|
A|--------------------------------------------------|
E|--------------------------------------------------|
    .     .     .     .    

Added On December 16th, 2013

SHARE

Comments

blog comments powered by Disqus

ADVERTISEMENT