Pepper Tabs

Use Me

3 versions

TAB

            Use Me Tab by Pepper


-------------------------------------------------------------------------------
			     Use Me - Pepper
-------------------------------------------------------------------------------
Tabbed by: Ben Overstreet
Email:

Tuning: Normal

Intro/Verse:

     E    A    C#m
e|---7----5----4----4----4--4---------------------------------------------------------|
B|---9----5----4h5--5----4--5---------------------------------------------------------|
G|---9----6----4h6--6----4--6---------------------------------------------------------|
D|---9----7----4h6--6----4--6---------------------------------------------------------|
A|---7----7----4----4----4--4---------------------------------------------------------|
E|---0----5----x----x----x--x---------------------------------------------------------|


Chorus:

    F#m  C#m      G#m   G#    C#m
e|---2---4--4--4---4----4---4--4--4--|
B|---2---5--4--5---4----4---5--4--5--|
G|---2---6--4--6---4----5---6--4--6--|
D|---4---6--4--6---6----6---6--4--6--|
A|---4---4--4--4---6----6---4--4--4--|
E|---2---x--x--x---4----4---x--x--x--|

| /  slide up
| \  slide down
| h  hammer-on
| p  pull-off
| ~  vibrato
| +  harmonic
| x  Mute note
=================    

Added On December 5th, 2013

SHARE

Comments

blog comments powered by Disqus

VERSIONS

ADVERTISEMENT