Pete Murray Tabs

Freedom

1 versions

TAB

            Freedom Tab by Pete Murray


Jabakuz

Freedom by Pete Murray


Intro/Verse

e|-----------------------------------------------|
B|-----------------------------------------------|
G|------4------4-----4---------------------------|
D|------2------2-----2---------------------------|
A|-----------------------------------------------|
E|-0-0----0-0-----0------------------------------|


e|-----------------------------------------------|
B|-----------------------------------------------|
G|------4---------4------------------------------|
D|------2---------2------------------------------|
A|-3-3-----3-0-0-----0---------------------------|
E|-----------------------------------------------|

Chorus


e|-----------------------------------------------|
B|-1-x-x-x-1-x-x-x-1-x-x-x-----------------------|
G|-2-x-x-x-2-x-x-x-2-x-x-x-----------------------|
D|-2-x-x-x-2-x-x-x-2-x-x-x-----------------------|
A|-----------------------------------------------|
E|-----------------------------------------------|
   Am      Am      Am   


e|-----------------------------------------------|
B|-1-x-x-x-1-x-x-x-------------------------------|
G|---x-x-x---x-x-x-------------------------------|
D|-2-x-x-x---x-x-x-------------------------------|
A|-3-x-x-x-2-x-x-x-------------------------------|
E|-----------------------------------------------|
   C       C/B    

Added On December 5th, 2013

SHARE

Comments

blog comments powered by Disqus

ADVERTISEMENT