Peter Frampton Tabs

All I Want To Be

2 versions

TAB

            All I Want To Be Tab by Peter Frampton


Artist: Peter Frampton
Song: All I Want to be (is by your side)
Tabbed by:Carlos Ramirez
Tuning: Eb Ab Db Gb Bb Db

  That's the right tuning, but can be also played standard tuning with
the first e string tuned down to D.

 I tabbed it from the Extended versions: the encore collection CD, but I'm sure he 
plays his acoustic versions the same way... these are basically chords, but you have to figure
out how he plays it.

INTRO:
Db|---------5-----4-------5---4-------4---x-------0---0---0--------|
Bb|---------5-----5-------5---5-------4---5-------3---3---3--------|
Gb|---------5-----5-------5---5-------4---5-------0---0---2--------| (2times
Db|---------0-----0-------0---0-------4---5-------2---0---0--------|
Ab|---------x-----x-------x---x-------x---3-------3---2---x--------|
Eb|---------x-----x-------x---x-------4---x-------x---3---x--------|

VERSE:
Db|---0--------------------------0-----------------------------------------|
Bb|---3--------------------------3-----------------------------------------|
Gb|---2--------------------------0-----------------------------------------|
Db|---0--------------------------2-----------------------------------------|
Ab|---x--------------------------3-----------------------------------------|
Eb|---x--------------------------x-----------------------------------------|
      do what you do      don't bring me down
     don't stand alone you might turn to stone


Db|------0-----------------0--------------------0---------------------------
Bb|------3-----------------3--------------------3---------------------------
Gb|------0-----------------0--------------------2---------------------------
Db|------2-----------------0--------------------0---------------------------
Ab|------3-----------------2--------------------x---------------------------
Eb|------x-----------------3--------------------x---------------------------
       I went to the     doctor           he's just another clown
       I'm sure there is a pill for that       you're on your own


CHORUS:
Db|-5-------------4----------4---------x--4-------------x-----0---0----0---|
Bb|-5-------------5----------4---------5--4-------------5-----3---3----3---|
Gb|-5-------------5----------4---------5--4-------------5-----0---0----2---|
Db|-0-------------0----------4---------5--4-------------5-----2---0----0---|
Ab|-x-------------x----------x---------3--x-------------3-----3---2----x---|
Eb|-x-------------x----------4---------x--4-------------x-----x---3----x---|
      can't you see what it's doing to me   all I wanna be is by your side
       I don't care if they cut my   hair   all I wanna be is by your side

Db|---4--------------x----|
Bb|---4--------------5----|
Gb|---4--------------5----|  (silence)
Db|---4--------------5----|
Ab|---x--------------3----|
Eb|---4--------------x----|
         all I wanna be is...  by your side


 INSTRUMENTAL:
Db|---5------7--7--7--7--7--0-----------------0--0---------0-----|
Bb|---3------7--7--8--7--7--0---0--0-0--0-0---3--3---------3-----|
Gb|---4------7--7--7--7--7--7---5--7-9--7-5---0--0---------2-----|
Db|---0------0--0--0--0--0--0---7--9-10-9-7---2--0---------0-----|
Ab|---x-------------------------0--0-0--0-0---3--2---------------|
Eb|---x------------------------------------------3--1-3-1--------|

Db|---7--7--9-7----5----0---0----0-----------------------------------------|
Bb|---7--7--8-7----5----3---3----3-----------------------------------------|
Gb|---7--7--7-7----5----0---0----2-----------------------------------------|
Db|---0--0--0-0----0----2---0----0-----------------------------------------|
Ab|---------------------3---2----------------------------------------------|
Eb|-------------------------3----------------------------------------------|

  VERSE,CHORUS...


Db|-4-------------x---------0-----0---------0--0-0--0-0-0-0--0---0-0---0--|
Bb|-4-------------5---------3-----3---------3--3-3--3-3-3-3--3---3-3---3--|
Gb|-4-------------5---------0-----0---------2--0-0--0-0-0-0--0---2-0---2--|
Db|-4-------------5---------2-----0---------0--x-x--0-0-0-0--0---0-2---0--|
Ab|-x-------------3---------3-----2------------3-2--x-x-0-x--x-----3------|
Eb|-4-------------x---------x-----3-----------------3-3---3--1------------|
    ..all I wanna be   is  by.. your .. side    

Added On December 5th, 2013

SHARE

Comments

blog comments powered by Disqus

VERSIONS

ADVERTISEMENT