Pierce The Veil Tabs

Beat It

1 versions

TAB

            elow der were skit hehehe
s.kit12@yahoo.com
--serj0e22
hi guys.this is my first time to wrote a tab.im not really sure for this tab.but i try 
best too.tnx.please rate my tab.
enjoy!!!!

drop d

intro:
gt.1/gt.2
e|--------------------------------------------------------------|
b|--------------------------------------------------------------|
g|--------------------------------------------------------------|
d|---5------2------5------0-------------------------------------|
a|---5------2------5------0-------------------------------------|
D|---5------2------5------0-------------------------------------|

gt.1/gt.2
e|--------------------------------------------------------------|
b|--------------------------------------------------------------|
g|--------------------------------------------------------------|
d|--------4--1---1-3-1------------------------------------------|
a|------1--------------44---------------------------------------|
D|--1-4---------------------------------------------------------|

e|--------------------------------------------------------------|
b|--------------------------------------------------------------|
g|--------------------------------------------------------------|
d|--------4--1---1-3-1------------------------------------------|
a|------1--------------4----------------------------------------|
D|--1-4---------------------------------------------------------| 2x

gt.2
e|--------------------------------------------------------------|
b|----7--7--7--7------------------------------------------------|
g|----6--6--6--6------------------------------------------------|
d|---------------8--8-------------------------------------------|
a|---------------8--8-------------------------------------------|
D|--------------------------------------------------------------|
note(strumming part)+bend

verse I:
gt.1
e|--------------------------------------------------------------|
b|--------------------------------------------------------------|
g|-------------8--8--8-----6--6--6-----8--8--8-----6--6--6------|
d|-------------8--8--8-----6--6--6-----8--8--8-----6--6--6------|
a|-------------6--6--6-----4--4--4-----6--6--6-----4--4--4------|
D|--------------------------------------------------------------|

e|--------------------------------------------------------------|
b|--------------------------------------------------------------|
g|-------------4--4--4-----6--6--6-----8--8--8-----6--6--6------|
d|-------------4--4--4-----6--6--6-----8--8--8-----6--6--6------|
a|-------------2--2--2-----4--4--4-----6--6--6-----4--4--4------|
D|--------------------------------------------------------------|2x

gt.2
e|--------------------------------------------------------------|
b|---7----------------------------------------------------------|
g|--8-8-6---6-8-6--6-8-6--6-8-6--6-8----------------------------|
d|--------8------8-------8------8-------------------------------|
a|--------------------------------------------------------------|
D|--------------------------------------------------------------|
   note(palm muted)*****

chorus:
gt.1/gt.2
e|--------------------------------------------------------------|
b|--------------------------------------------------------------|
g|--------------------------------------------------------------|
d|--------4--1---1-3-1------------------------------------------|
a|------1--------------44---------------------------------------|
D|--1-4---------------------------------------------------------|

e|--------------------------------------------------------------|
b|--------------------------------------------------------------|
g|--------------------------------------------------------------|
d|--------4--1---1-3-1------------------------------------------|
a|------1--------------4----------------------------------------|
D|--1-4---------------------------------------------------------|3x

verse II
gt.1
e|--------------------------------------------------------------|
b|--------------------------------------------------------------|
g|-------------8--8--8-----6--6--6-----8--8--8-----6--6--6------|
d|-------------8--8--8-----6--6--6-----8--8--8-----6--6--6------|
a|-------------6--6--6-----4--4--4-----6--6--6-----4--4--4------|
D|--------------------------------------------------------------|

e|--------------------------------------------------------------|
b|--------------------------------------------------------------|
g|-------------4--4--4-----6--6--6-----8--8--8-----6--6--6------|
d|-------------4--4--4-----6--6--6-----8--8--8-----6--6--6------|
a|-------------2--2--2-----4--4--4-----6--6--6-----4--4--4------|
D|--------------------------------------------------------------|2x

gt.2
e|--------------------------------------------------------------|
b|---7----------------------------------------------------------|
g|--8-8-6---6-8-6--6-8-6--6-8-6--6-8----------------------------|
d|--------8------8-------8------8-------------------------------|
a|--------------------------------------------------------------|
D|--------------------------------------------------------------|

chorus:
gt.1/gt.2
e|--------------------------------------------------------------|
b|--------------------------------------------------------------|
g|--------------------------------------------------------------|
d|--------4--1---1-3-1------------------------------------------|
a|------1--------------44---------------------------------------|
D|--1-4---------------------------------------------------------|

e|--------------------------------------------------------------|
b|--------------------------------------------------------------|
g|--------------------------------------------------------------|
d|--------4--1---1-3-1------------------------------------------|
a|------1--------------4----------------------------------------|
D|--1-4---------------------------------------------------------|2x    

Added On December 16th, 2013

SHARE

Comments

blog comments powered by Disqus

ADVERTISEMENT