Pietasters Tabs

Tell You Why

1 versions

TAB

            Tell You Why
The Pietasters

Intro/Verse
|--10-10--9--9---8-8--9--9---|
|--11-11--10-10--7-7--10-10--|
|--11-11--9--9---8-8--9--9---|
|----------------------------|
|----------------------------|
|----------------------------|

Solo
|---------------------|---------------------|
|-----------------13--|---------------------|
|--12~14~12----12-----|--12~14~12----12-----|
|-----------15--------|-----------15--------|
|---------------------|-----------------15--|
|---------------------|---------------------|    

Added On December 16th, 2013

SHARE

Comments

blog comments powered by Disqus

ADVERTISEMENT