Pillows Tabs

Cherry

1 versions

TAB

            Cherry Tab by Pillows


######################################################################
# By: Nick Dobromilsky (Shizoku) #
######################################################################

Song: Cherry
Album: Amother Mourning, Another Pillows
Artist: The Pillows

Verse 1 (3x):
e|-----------------|-----------------|-----------------|-----------------|
B|-----------------|-----------------|-----------------|-----------------|
G|-2---2-5-2---7~--|-2---2-5-2-7s9s7-|-2---2-5-2---7~--|-2---2-5-2-7s9s7-|
D|-2---2-5-2---7~--|-2---2-5-2-7s9s7-|-2---2-5-2---7~--|-2---2-5-2-7s9s7-|
A|-------3-----5~--|-------3---5s7s5-|-------3-----5~--|-------3---5s7s5-|
E|-----------------|-----------------|-----------------|-----------------|

Pre-Chorus:
e|-----------------|-----------------|-----------------|-----------------|
B|-----------------|-----------------|-----------------|-----------------|
G|-2---2-5-2---7~--|-2---2-5-2-7s9s7-|-----------------|-----------------|
D|-2---2-5-2---7~--|-2---2-5-2-7s9s7-|-2-2-2-2-2-2-2-2-|-2-2-2-2-2-2-2-2-|
A|-------3-----5~--|-------3---5s7s5-|-2-2-2-2-2-2-2-2-|-2-2-2-2-2-2-2-2-|
E|-----------------|-----------------|-----------------|-----------------|

e|-----------------|-----------------|-----------------|-----------------|
B|-----------------|-----------------|-----------------|-----------------|
G|-2---2-5-2---7~--|-----------------|-----------------|-----------------|
D|-2---2-5-2---7~--|-2-2-2-2-2-2-2-2-|-2-2-2-2-2-2-2-2-|-5-5-5-5-5-5-5-5-|
A|-------3-----5~--|-2-2-2-2-2-2-2-2-|-2-2-2-2-2-2-2-2-|-5-5-5-5-5-5-5-5-|
E|-----------------|-----------------|-----------------|-3-3-3-3-3-3-3-3-|

e|-----------------|
B|-----------------|
G|-----------------|
D|-5-5-5-5-5-5-5-5-|
A|-5-5-5-5-5-5-5-5-|
E|-3-3-3-3-3-3-3-3-|

Chorus (3x):
e|-----------------|-----------------|-----------------|-----------------|
B|-----------------|-----------------|-----------------|-----------------|
G|-5---5---5---5---|-----------------|-----------------|-----------------|
D|-5---5---5---5---|-5---5---5---5---|-7---7---7---7---|-3---3---3---3---|
A|-3---3---3---3---|-5---5---5---5---|-7---7---7---7---|-3---3---3---3---|
E|-----------------|-3---3---3---3---|-5---5---5---5---|-1---1---1---1---|

e|-----------------|-----------------|-----------------|
B|-----------------|-----------------|-----------------|
G|-----------------|-----------------|-----------------|
D|-5-5-5-5-5-5-5-5-|-2-2-2-2-2-2-2-2-|---Repeat-All--::|
A|-5-5-5-5-5-5-5-5-|-2-2-2-2-2-2-2-2-|---------------::|
E|-3-3-3-3-3-3-3-3-|-----------------|-----------------|    

Added On December 5th, 2013

SHARE

Comments

blog comments powered by Disqus

ADVERTISEMENT