Pink Floyd Tabs

On Noodle Street

1 versions

TAB

            -------------------------------------------------------------------------------
                             On Noodle Street - Pink Floyd
-------------------------------------------------------------------------------

Tuning: standard

0:10

e|------------------------------------------------------------------9-7----------------------------|
B|--14-12-12-12b---7b-7--5-5b-------------5-7-7b---5---12b-12b--9-9-----9-7b-5---------------------|
G|--------------------------------------6--------6-------------------------------------------------|
D|-------------------------------------------------------------------------------------------------|
A|-------------------------------------------------------------------------------------------------|
E|-------------------------------------------------------------------------------------------------|

0:25

e|-----------------------------9-7---------------------------------------12------------------------|
B|------7pbr-5-----------7b-7b-----9-7-7b-5---7b-5-----------12b-12b-12b---------------------------|
G|--6---------------------------------------6------6-----------------------------------------------|
D|-------------------------------------------------------------------------------------------------|
A|-------------------------------------------------------------------------------------------------|
E|-------------------------------------------------------------------------------------------------|

0:45

e|-----------------------9-11--11~-----------------------------------------------------------------|
B|--7pbr-5---7b---------------------12--4----------------------------------------------------------|
G|---------6---------------------------------------------------------------------------------------|
D|-------------------------------------------------------------------------------------------------|
A|-------------------------------------------------------------------------------------------------|
E|-------------------------------------------------------------------------------------------------|

0:59

e|----------------------------16\----------------14b--14pbr-12-14b-14b-----------------------------|
B|--7b------------------------16\------------------------------------------------------------------|
G|-------------------------------------------------------------------------------------------------|
D|-------------------------------------------------------------------------------------------------|
A|-------------------------------------------------------------------------------------------------|
E|-------------------------------------------------------------------------------------------------|

1:17

e|-----------7-----------------------7----9---7--------9~-------------11b-11-----------------------|
B|--------7b---------7b-5-7-5----7/9--------9---7b-5--------12b-12-----------12---------------4h6--|
G|--4/9-----------------------6----------------------6--------------------------11-9-9-8-6-8-------|
D|-------------------------------------------------------------------------------------------------|
A|-------------------------------------------------------------------------------------------------|
E|-------------------------------------------------------------------------------------------------|

1:38

e|-------------------------------------------------------------------------------------------------|
B|----------5-7-7b---------------------------------------------------------------------------------|
G|--9-9---6-----6b---------------------------------------------------------------------------------|
D|------9------------------------------------------------------------------------------------------|
A|-------------------------------------------------------------------------------------------------|
E|-------------------------------------------------------------------------------------------------|


************************************

| /   slide up
| \   slide down
| h   hammer-on
| p   pull-off
| ~   vibrato
| +   harmonic
| x   Mute note
| b   Bend
| pb  Pre-bend
| br  Bend release
| pbr Pre-bend release
| brb Bend release bend

************************************    

Added On December 20th, 2014

SHARE

Comments

blog comments powered by Disqus

ADVERTISEMENT