Placebo Tabs

Lady Of The Flowers

4 versions

TAB

            Lady Of The Flowers Tab by Placebo


"Excuse me.." bit:

C  ---------------------------------------------------
C  -----8---0---0---8--------0------0---8-------------
G# --9------------------9---------9-------------------
Eb ----------------------------------------10---------
Bb -----------------------0---------------------------
F  ---------------------------------------------------

"It seemed to last for hours..." bit:

C  ---------------------------------------------------------
C  --0-----------0-----------0---------0--------------------
G# --10-10-9--9--10-10-9--9--9--10-9---9--------------------
Eb --9--9--9--9--9--9--9--9--9--9--9---9--------------------
Bb ------------------------------------0--------------------
F  ---------------------------------------------------------

Chorus:

C  ----------------------------------------------------------
C  --1-1-1-1-1-1-1-1-1-1-1-----------------------------------
G# --2-0-0-0-2-0-0-0-0-2-0--5-5-5-5-5-5-5-5-5-5--------------
Eb --3-3-3-3-3-3-3-3-3-3-3--5-5-5-5-5-5-5-5-5-5--------------
Bb --3-3-3-3-3-3-3-3-3-3-3--3-3-3-3-3-3-3-3-3-3--------------
F  ----------------------------------------------------------

Behind the bridge at end.    

Added On December 5th, 2013

SHARE

Comments

blog comments powered by Disqus

VERSIONS

ADVERTISEMENT