Placebo Tabs

Meds

6 versions

TAB

            Meds Tab by Placebo


Band - Placebo
Song - Meds
Album - Meds

Standard tuning


Intro/verse: (during whole song)

e|------------------------------------------------|
B|------------------------------------------------|
G|------------------------------------------------|
D|-9-9-9-9-9-9-9-9-9--9--9--9--9--9--9--9--9--9---|
A|-7-7-7-7-7-7-7-7-7--10-10-10-10-10-10-10-10-10--|
E|------------------------------------------------|

e|------------------------------------------------||
B|------------------------------------------------||
G|------------------------------------------------||  (repeat)
D|-9-9-9-9-9-9-9-9-9--9-9-9-9-9-9-9-9-9-9---------||
A|-7-7-7-7-7-7-7-7-7--7-7-7-7-7-7-7-7-7-7---------||
E|-8-8-8-8-8-8-8-8-8--7-7-7-7-7-7-7-7-7-7---------||


Chorus: 2nd guitar (during verse)
e|---------------------------------------------||
B|---------------------------------------------||
G|---------------------------------------------||
D|-4h5-5-5-5-4-4-4-4-7-7-7-7-4-4-4-------------||
A|---------------------------------------------||
E|---------------------------------------------||


"And the sex and the drugs and the complications" part: 2nd part
e|-----------------------------|      |------------------------------------|
B|-----------------------------|      |------------------------------------|
G|-11--12-12-12-12--11-11-11---| X 3  |-11-11-11---14-14-14-14---11-11-11--| 
D|-----------------------------|      |------------------------------------|
A|-9---10-10-10-10--9--9--9----|      |-9--9--9----12-12-12-12---9--9--9---|
E|-----------------------------|      |------------------------------------|


Ending: 2nd guitar
e|------------11^12-----------|
B|----------------------------|
G|----8^9---------------------| (repeat)
D|----------------------------|
A|----------------------------|
E|----------------------------|

Comments:
jlirineoh@yahoo.com    

Added On December 16th, 2013

SHARE

Comments

blog comments powered by Disqus

VERSIONS

ADVERTISEMENT