Poison Tabs

I Hate Every Bone In Your Body But Mine

1 versions

TAB

            Band:Poison           
                Song:I Hate Every Bone In Your Body But Mine

Tuned Down A Half Step



e|--------------------------------------------------------------|
b|------------------------------------------------3-3-------3---|
g|------------------------------------------------2-2-------2---| X4
d|--4-4-2h4-2h4p2-4-4-2h4-2h4p2-------2h3-2h3p2---0-0--2-3--0---|
a|--2-2-----------2-2-------------------------------------------|
e|-------------------------------3-3----------------------------|


e|-----------------------------------------------|
b|-----------------------------------------------|
g|-----------------------------------------------|
d|-----------------------------------------------|
a|--7/9-9-9-9/7----------------------------------|
e|--5/7-7-7-7/5----------------------------------|


Chorus

Solo    

Added On December 16th, 2013

SHARE

Comments

blog comments powered by Disqus

ADVERTISEMENT