TAB

            Guitars: Three

L = hold previous note to this point.
h = hammer on / off from previous to next note.

Guitar 1 Plays this throughout, stopping for about 16 bars at 0:25

Tempo = 170
3/4 Waltz Time

     Q    E  E  Q       Q    E  E  Q       Q    E  E  E   E   
E||-------------7----|-------------0----|-------------7h--8--|
B||----------0--L----|----------0--L----|----------0--L------|
G||-------0-----L----|-------0-----L----|-------0-----L------|
D||------------------|------------------|--------------------|
A||--7----------L----|--7----------L----|--7----------L------|
E||------------------|------------------|--------------------|


  Q    E  E  E   E     Q    E  E  Q       Q    E  E  Q       Q    E  E  Q     
-------------5h--7--|-------------3----|-------------5----|-------------7----|
----------0--L------|----------0--L----|----------0--L----|----------0--L----|
-------0-----L------|------------------|------------------|------------------|
--------------------|-------2-----L----|-------2-----L----|-------4-----L----|
--7----------L------|--3----------L----|--4----------L----|--5----------L----|
--------------------|------------------|------------------|------------------|


  Q    Q    Q     
-----------------|
------------0----|
-----------------|
-------4----L----|
--6---------L----|
-----------------|

Guitar Two comes in at 0:10 with this, and simply repeats throughout.

     H.              H.               H.              Q     Q     Q     
E||---------------|---------------|----------------|-------------------|
B||--8------------|--8------------|--10------------|--8----10----12----|
G||--9------------|--9------------|---9------------|--9-----9-----9----|
D||---------------|---------------|----------------|-------------------|
A||---------------|---------------|----------------|-------------------|
E||---------------|---------------|----------------|-------------------|


  H.              H.              H.              H.              H.            
---------------|---------------|---------------|---------------|---------------|
--5------------|--5------------|--7------------|--7------------|--8------------|
--5------------|--6------------|--7------------|--8------------|--9------------|
---------------|---------------|---------------|---------------|---------------|
---------------|---------------|---------------|---------------|---------------|
---------------|---------------|---------------|---------------|---------------|


  H.               H.              Q     Q     Q       Q    Q    Q     
---------------|----------------|-------------------|-----------------|
--8------------|--10------------|--8----10----12----|--5----5----5----|
--9------------|---9------------|--9-----9-----9----|--5----5----5----|
---------------|----------------|-------------------|-----------------|
---------------|----------------|-------------------|-----------------|
---------------|----------------|-------------------|-----------------|


  Q    Q    Q       Q    Q    Q       Q    Q    Q         Q    Q    Q     
-----------------|-----------------|-----------------||------------------|
--5----5----5----|--7----7----7----|--7----7----7----||---8----8----8----|
--6----6----6----|--7----7----7----|--8----8----8----||---9----9----9----|
-----------------|-----------------|-----------------||------------------|
-----------------|-----------------|-----------------||------------------|
-----------------|-----------------|-----------------||------------------|


  Q    Q    Q       Q    Q    Q       Q    Q    Q       Q    Q    Q     
-----------------|-----------------|-----------------|-----------------|
--8----8----8----|--8----8----8----|--8----8----8----|--5----5----5----|
--9----9----9----|--9----9----9----|--9----9----9----|--5----5----5----|
-----------------|-----------------|-----------------|-----------------|
-----------------|-----------------|-----------------|-----------------|
-----------------|-----------------|-----------------|-----------------|


  Q    Q    Q       Q    Q    Q       Q    Q    Q         H.            
-----------------|-----------------|------------------||--0------------|
--5----5----5----|--7----7----7----|--7----7----7-----||--8------------|
--6----6----6----|--7----7----7----|--8----8----8----*||--9------------|
-----------------|-----------------|-----------------*||---------------|
-----------------|-----------------|------------------||---------------|
-----------------|-----------------|------------------||---------------|


  H.               H.              Q     Q     Q       H.            
--0------------|----------------|-------------------|--5------------|
--8------------|--10------------|--8----10----12----|--5------------|
--9------------|---9------------|--9-----9-----9----|--5------------|
---------------|----------------|-------------------|---------------|
---------------|----------------|-------------------|---------------|
---------------|----------------|-------------------|---------------|


  H.              H.              H.              H.              H.            
--5------------|--5------------|--5------------|--0------------|--0------------|
--5------------|--7------------|--7------------|--8------------|--8------------|
--6------------|--7------------|--8------------|--9------------|--9------------|
---------------|---------------|---------------|---------------|---------------|
---------------|---------------|---------------|---------------|---------------|
---------------|---------------|---------------|---------------|---------------|


  H.              Q    Q    Q       H.                        
--5------------|--0----5----7----|--5------------|
--8------------|--8----8----8----|--5------------|
--9------------|--9----9----9----|--5------------|
---------------|-----------------|---------------|
---------------|-----------------|---------------|
---------------|-----------------|---------------|



Guitar 3 Comes in at 1:24 with :

      Q    Q    Q       Q    Q    Q       Q    Q    Q     
E||---/7----5---------|--5--------------|-----------------|
B||--------------8----|-------8----7----|--8----7----5----|
G||-------------------|-----------------|-----------------|
D||-------------------|-----------------|-----------------|
A||-------------------|-----------------|-----------------|
E||-------------------|-----------------|-----------------|


  Q    Q    Q        Q    Q    Q       Q    Q    Q       Q    Q    Q     
------------5----|--/7----5---------|--5--------------|-----------------|
--7----8---------|-------------8----|-------8----7----|--8----7----5----|
-----------------|------------------|-----------------|-----------------|
-----------------|------------------|-----------------|-----------------|
-----------------|------------------|-----------------|-----------------|
-----------------|------------------|-----------------|-----------------|


  Q    Q    Q       
------------5-----||
--7----8----------||
------------------||
------------------||
------------------||
------------------||    

Added On December 16th, 2013

SHARE

Comments

blog comments powered by Disqus

VERSIONS

ADVERTISEMENT