Primer 55 Tabs

Gs

1 versions

TAB

            Gs Tab by Primer 55


Band: Primer 55
Song: G's
Tabbed by: Pat Court
E-mail: fafara_rascon@hotmail.com

Tuning - half step and Drop D

Chorus
D#|-----------------------|
A#|-----------------------|
F#|-----------------------|
C#|-----------------------|
G#|-----------------------|
C#|-0-0---0-0-0-0-0-3-1---|

Verse
D#|---------------------------|
A#|---------------------------|
F#|---------------------------|
C#|---------------------------|
G#|---------------------------|
C#|-0--0-3-1----0--0-3-1-0----|

Bridge?
D#|-------------------|
A#|-------------------|
F#|-------------------|
C#|-0-5-4-3-2---------|
G#|-0-5-4-3-2---------|
C#|-0-5-4-3-2---------|    

Added On December 5th, 2013

SHARE

Comments

blog comments powered by Disqus

ADVERTISEMENT