Prodigy Tabs

Music Reach 1234

2 versions

TAB

            Music Reach 1234 Tab by Prodigy


Artist: The Prodigy
Song: Music Reach (1,2,3,4)
Album: Experience (1991)

Tabbed by: Bogbrush
Email: Taff733@aol.com

Intro

e|-------------4------------|
B|-333----333---------------|
G|--------------------------|
D|--------------------------|
A|--------------------------|
E|--------------------------|

This is about halfway through the song

e|-------------------------------------------------|
B|-------------------------------------------------|
G|-------------------------------------------------|
D|--10----10----10----10----5-----7-----10-----10--|   And repeat for about
A|--10----10----10----10----5-----7-----10-----10--|      a min or two.
E|--8-----8-----8-----8-----3-----5-----8------8---|

      " Make me wanna shout!"

That's near enough it. Any errors or mistakes, just email me and i will change them. Enjoy!    

Added On December 5th, 2013

SHARE

Comments

blog comments powered by Disqus

VERSIONS

ADVERTISEMENT