Queens Of The Stone Age Tabs

Into The Hollow Acoustic

1 versions

TAB

            Into the Hollow (Acoustic Version)
Queens of the Stone Age
Tabbed by: Kevinm99

Tuning: Standard
h-hammer on
p-pull off
s-slide

Intro- Throw in some random bends on the D string for variation

e|------------------------------------------------------|
B|------------------------------------------------------|
G|------------------------------------------------------|
D|---------------------------5--------------------------|
A|////7----7----5h7p5h7-----------7----7----5h7p5h7-----|
E|------------------------------------------------------|

e|------------------------------------------------------|
B|------------------------------------------------------|
D|------------------------------------------------------|
G|---5--------------------------5-----------------------|
A|-------7----7----5h7p5h7-----------7----7----5h7p5h7--|
E|------------------------------------------------------|


Verse

e|------------------------------------------------------|
B|------------------------------------------------------|
G|------------------------------------------------------|
D|-----5----5----5-5-5---------------------------5------|
A|--5--------------------7----5----5----5-5-5-----------|
E|------------------------------------------------------|

e|------------------------------------------------------|
B|------------------------------------------------------|
D|------------------------------------------------------|
G|---------------------------5--------------------------|
A|----7----7----5h7p5h7-----------7----7----5h7p5h7-----|
E|------------------------------------------------------|

Variation of the Verse

e|------------------------------------------------------|
B|------------------------------------------------------|
G|------------------------------------------------------|
D|------------------------------------------------------|
A|--5--7s10---10---10-10-10--7----5----5----5-5-5--7s10-|
E|------------------------------------------------------|

e|------------------------------------------------------|
B|------------------------------------------------------|
D|------------------------------------------------------|
G|---------------------------5--------------------------|
A|----7----7----5h7p5h7-----------7----7----5h7p5h7-----|
E|------------------------------------------------------|

Chorus

e|------------------------------------------------------|
B|------------------------------------------------------|
G|------------------------------------------------------|
D|--9--9-12--9----9--9--9----11-11-14-11---11-11-11-----|
A|-10-10-10-10---10-10-10----12-12-12-12---12-12-12-----|
E|------------------------------------------------------|

e|------------------------------------------------------|
B|------------------------------------------------------|
G|------------------------------------------------------|
D|-13-13-16-13---13-16-13-13-13-16-13-17-17-16-13-------|
A|-14-14-14-14---14-14-14-14-14-14-14-14-14-14-14-------|
E|------------------------------------------------------|

He plays a lot of variations on this riff so experiment with 
what you like or think sounds right. The notes are all the
same though.

Outro

e|------------------------------------------------------|
B|------------------------------------------------------|
G|------------------------------------------------------|
D|--9--9--9--9--9--9--9--7--5--5--5--5--5--5--5--5------|
A|-10-10-10-10-10-10-10--9--7--7--7--7--7--7--7--7------|
E|------------------------------------------------------|

e|------------------------------------------------------|
B|------------------------------------------------------|
G|------------------------------------------------------|
D|--5--7--7--7--5--4--4--4--5--7--7--7--5--4--4--4--4---|
A|--5--5--5--5--5--5--5--5--5--5--5--5--5--5--5--5--5---|
E|------------------------------------------------------|


The song order is fairly simple but if you can't figure it out

Intro   X1
Verse   X2
Chorus  X4
Intro   X1 (Minus the beginning slide)
Verse   X2
Chorus  X4
Outro   X3
Chorus  X2
Intro   X1 (Minus the beginning slide)    

Added On December 16th, 2013

SHARE

Comments

blog comments powered by Disqus

ADVERTISEMENT