Queens Of The Stone Age Tabs

Lullabies To Paralyze Album

1 versions

TAB

            Just a collection of the best tabs of the songs from the album!

THIS LULLABY transcribed by GasPanic

Gtr I (E A D G B E) - 'Untitled'

   Intro
    
  
    EM
||-----------|-----------||-^7-------|-(7)----||
||o-------8--|-------8--o||-^8-------|-(8)----||
||-----9-----|----9------||-^9-------|-(9)----||
||-----------|-9---------||-^9-------|-(9)----||
||o-7--------|----------o||-^7-------|-(7)----||
||-----------|-----------||----------|--------||


   Verse
    
    Em                    B
   
||-----------|----------|----------|-----------|
||o-------8--|-------8--|----------|-----------|
||-----9-----|----9-----|-------8--|-------8---|
||-----------|-9--------|----9-----|----9------|
||o-7--------|----------|----------|-9---------|
||-----------|----------|-7--------|-----------|


  B                      Em
 
|----------|-----------|----------|-----------||
|----------|-----------|-------8--|-------8--o||
|-------8--|-----------|----9-----|----9------||
|----9-----|----9------|----------|-9---------||
|----------|-9-----10--|-7--------|----------o||
|-7--------|-----------|----------|-----------||


 Bridge
  G                           D
   
|-------------|-------------|-------------|-------------|
|---------12--|---------12--|-------------|-------------|
|-----12------|-----12------|---------11--|---------11--|
|-------------|-12----------|-----12------|-----12------|
|-10----------|-------------|-------------|-12----------|
|-------------|-------------|-10----------|-------------|


                                   To Coda
  C                         Em
  
|-----------|-------------|----------|-7------||
|-----------|-------------|----------|--------||
|--------9--|-------------|-------8--|--------||
|----10-----|-----10------|----9-----|--------||
|-----------|-10----------|----------|--------||
|-8---------|---------10--|-7--------|--------||


 End Verse
  Em
 
|----------|----------|----------|-----------|
|-------8--|-------8--|-------8--|-----------|
|----9-----|----9-----|----9-----|----9------|
|----------|-9--------|----------|-9---------|
|-7--------|----------|-7--------|-------10--|
|----------|----------|----------|-----------|


                           Coda
  Em
|----------|-7--------|-12-------|-(12)-----||
|-------8--|----8-----|----------|----------||
|----9-----|----------|----------|----------||
|----------|----------|----------|----------||
|-7--------|-------7--|--7-------|--(7)-----||
|----------|----------|----------|----------||


 Outro
  
  Em
|----------|----------|----------|----------|
|-------8--|-------8--|----------|----------|
|----9-----|----9-----|-------8--|-------8--|
|----------|-9--------|----9-----|----9-----|
|-7--------|----------|----------|-9--------|
|----------|----------|-7--------|----------|


  Em
 
|----------|----------|-12-------|-(12)----*|
|-------8--|-------8--|----------|---------*|
|----9-----|----9-----|----------|---------*|
|----------|-9--------|----------|---------*|
|-7--------|----------|--7-------|--(7)----*|
|----------|----------|----------|---------*|

MEDICATION transcribed by Jori Apedaile, apedailejw@gaggle.net

NOTE: To get a tone that sounds like Queens of the Stone Age, I would recommend using 
pickup closest to the neck, turning your tone knob down all the way, and having a 
amplifier.

Intro
e-6___________________-
B----------------------|
G----------------------|  hold for 16 beats while the bass does its little
D----------------------|  part.
A----------------------|
E----------------------|

-------------------|
-------------------|
-------------------|
-------------------|  immediately to verse
-6-8-6-8-6-8-6-8-6-|
-4-6-4-6-4-6-4-6-4-|

Verse
-----------------------------------------------------------------|
-----------------------------------------------------------------|
-----------------------------------------------------------------|
-----------------------------------------------------------------|
-8-8-8-8-8-8-8-8-8-8-8-8-8-8-8-8-8-8-8-8-8-8-8-8-8-8-8-8-8-8-8-8-|
-6-6-6-6-6-6-6-6-6-6-6-6-6-6-6-6-6-6-6-6-6-6-6-6-6-6-6-6-6-6-6-6-|

-----------------------------------------|
-----------------------------------------|
-----------------------------------------|
-------6-6---------9---------------------| Immediately to Verse 2
-4-4---4-4---6-6---7---6-8-6-8-6-8-6-8-6-|
-2-2---------4-4---7---4-6-4-6-4-6-4-6-4-|

---------------------------------------------------------------|
---------------------------------------------------------------|
---------------------------------------------------------------|
---------------------------------------------------------------|
-8-8-8-8-8-8-8-8-8-8-8-8-8-8-8-8-8-8-8-8-8-8-8-8-8-8-8-8-8-8-8-|
-6-6-6-6-6-6-6-6-6-6-6-6-6-6-6-6-6-6-6-6-6-6-6-6-6-6-6-6-6-6-6-|

-----------------------------------------|
-----------------------------------------|
-----------------------------------------|
-------6-6---------9---------------------| Immediately to Verse 3
-4-4---4-4---6-6---7---6-8-6-8-6-8-6-8-6-|
-2-2---------4-4---7---4-6-4-6-4-6-4-6-4-|

-------------P-------------P-------------------------------P-|
-------------A-------------A-------------------------------A-|
-------------U-------------U-------------------------------U-|
-------------S-------------S-------------------------------S-|
-8-8-8-8-8-8-E-8-8-8-8-8-8-E-8-8-8-8-8-8-8-8-8-8-8-8-8-8-8-E-|
-6-6-6-6-6-6---6-6-6-6-6-6---6-6-6-6-6-6-6-6-6-6-6-6-6-6-6---|

-----------------------------------------------------------------|
-----------------------------------------------------------------|
-----------------------------------------------------------------|
-----------------------------------------------------------------|
-8-8-8-8-8-8-8-8-8-8-8-8-8-8-8-8-8-8-8-8-8-8-8-8-8-8-8-8-8-8-8-8-|
-6-6-6-6-6-6-6-6-6-6-6-6-6-6-6-6-6-6-6-6-6-6-6-6-6-6-6-6-6-6-6-6-|

-----------------------------------------|
-----------------------------------------|
-----------------------------------------|
-------6-6---------9---------------------| Immediately repeat verse 2
-4-4---4-4---6-6---7---6-8-6-8-6-8-6-8-6-|
-2-2---------4-4---7---4-6-4-6-4-6-4-6-4-|

EVERYBODY KNOWS THE YOU ARE INSANE transcribed by tylersugarcarlo

Intro/Verse Rhythm (Clean)
       A sh     A mj   F sh  D sh   
   |--------------------------------|
   |------7-------6------3----------|
   |--------7-------6-----3----4----|
   |----7----7---6---6--3--3----5---|
   |---5--------4------1------5--5--|
   |-------------------------3------|

Slide Lead Intro
|-----------------------------------|
|-----------------------------------|
|-7/10\7~---6\7/6-----------/12~----|
|--------------------2\3~-3\--------|
|-----------------------------------|
|-----------------------------------|

     Intro Rhythm Cont.
        A sh   C mj   C sh      C sh  
     |-------------------------------------|
     |----7------9-------10--------10------|
     |-----7------9--------10--------10----|
     |---7--7---9--9---10----10--10----10--|
     |--5------7------8---------8----------|
     |-------------------------------------|

Slide Lead Cont.
|-----------------------------|
|-13/15\10---10/12~---12/14~--|
|-----------------------------|
|-----------------------------|
|-----------------------------|
|-----------------------------|

    Intro Rhythm Cont.
        A sh     A mj   F sh  D sh   
    |--------------------------------|
    |------7-------6------3----------|
    |--------7-------6-----3----4----|
    |----7----7---6---6--3--3----5---|
    |---5--------4------1------5--5--|
    |-------------------------3------|

Slide Lead Cont.
|-10/13\10~--10/15~--15/17~--18~--|
|---------------------------------|
|---------------------------------|
|---------------------------------|
|---------------------------------|
|---------------------------------|

Intro Rhythm Cont.
        A sh   C mj   C sh      C sh  
     |-------------------------------------|
     |----7------9-------10--------10------|
     |-----7------9--------10--------10----|
     |---7--7---9--9---10----10--10----10--|
     |--5------7------8---------8----------|
     |-------------------------------------|

Slide Lead Cont.
|-13/16\13--/16---/22-/22\21\14~--14/16\14\9~~~--|
|------------------------------------------------|
|------------------------------------------------|
|------------------------------------------------|
|------------------------------------------------|
|------------------------------------------------|

Verse (same picking pattern as above)
A sh       A mj          F sh    D sh
  You Otta Know  Why You Feel So Hollow 

                                   Slide Lead 
                                   |-------------|
                                   |-10/15~\10~--|
                                   |-------------|
                                   |-------------|
                                   |-------------|
                                   |-------------|

A sh        A mj         F sh    D sh  (carry out the "are")
  Cause You Are------------------------      
                                          Slide
                                          |-10/13~\10~--|
                                          |-------------|
                                          |-------------|
                                          |-------------|
                                          |-------------|
                                          |-------------|

A sh             A mj      F sh   D sh       
  You're Missing Out  Well If You Say So
               Slide
               |-/15-------------------13/17~\13~~---|
               |-------------------------------------|
               |-------------------------------------| 
               |-------------------------------------|
               |-------------------------------------|
               |-------------------------------------|
       A sh                  A mj          D sh 
         When You're Missing Out-------------
Slide
|-13/16\13~~--------------------------/17~/19~/20/22~~~--|
|--------------------------------------------------------|
|--------------------------------------------------------|
|--------------------------------------------------------|
|--------------------------------------------------------|
|--------------------------------------------------------|

Chorus (Heavy Distorion)
  Everybody---------------- Knows That  You're  In-
|---------------------------------------------------|
|---------------------------------------------------|
|-7-7-7-7-7-7-7-7-7-7-7-7-7-6-6-6-6-6-6-3-3-3-3-3-3-|
|-7-7-7-7-7-7-7-7-7-7-7-7-7-6-6-6-6-6-6-3-3-3-3-3-3-|
|-5-5-5-5-5-5-5-5-5-5-5-5-5-4-4-4-4-4-4-1-1-1-1-1-1-|
|---------------------------------------------------|
-Sane
|------------------------------------------------------|
|------------------------------------------------------|
|-----------7-------------7-------------7--------------|
|-5-5-5-5-5-7---5-5-5-5-5-7---5-5-5-5-5-7---5-5-5-5-5--|
|-5-5-5-5-5-5---5-5-5-5-5-5---5-5-5-5-5-5---5-5-5-5-5--|
|-3-3-3-3-3-0-0-3-3-3-3-3-0-0-3-3-3-3-3-0-0-3-3-3-3-3--| 2x

2nd Verse (the A sharp and A major have slight distorion)
                    
                  You  Otta  Know                  
|------------------------------------------------------|
|------------------------------------------------------|
|-7-7--7-7-7--7-7-7--7-7-7--7-6-6--6-6-6--6-6-6--6-6-6-|
|-7-7--7-7-7--7-7-7--7-7-7--7-6-6--6-6-6--6-6-6--6-6-6-|
|-5-5--5-5-5--5-5-5--5-5-5--5-4-4--4-4-4--4-4-4--4-4-4-|
|------------------------------------------------------|

(the F sharp and the D sharp are heavily distorted)

Just   How Long  You Can    Hide From--------
  |-------------------------------------------------|
  |-------------------------------------------------|
  |-----------------------------------------------5-|
  |-8-8-8-8-8-8-8-8-8-8-8-8-5-5-5-5-5-5-5-5-5-5-5-5-|
  |-8-8-8-8-8-8-8-8-8-8-8-8-5-5-5-5-5-5-5-5-5-5-5-7-|
  |-6-6-6-6-6-6-6-6-6-6-6-6-3-3-3-3-3-3-3-3-3-3-3---| 

          What You Are---------------------------------
|------------------------------------------------------|
|------------------------------------------------------|
|-7-7--7-7-7--7-7-7--7-7-7--7-9-9--9-9-9--9-9-9--9-9-9-|
|-7-7--7-7-7--7-7-7--7-7-7--7-9-9--9-9-9--9-9-9--9-9-9-|
|-5-5--5-5-5--5-5-5--5-5-5--5-7-7--7-7-7--7-7-7--7-7-7-|
|------------------------------------------------------|  

              Not Very Long
|-------------------------------------------------|
|-------------------------------------------------|
|-------------------------------------------------|
|-8-8-8-8-8-8-8-8-8-8-8-8-8-8-8-8-8-8-8-8-8-8-8-8-|
|-8-8-8-8-8-8-8-8-8-8-8-8-8-8-8-8-8-8-8-8-8-8-8-8-|
|-6-6-6-6-6-6-6-6-6-6-6-6-6-6-6-6-6-6-6-6-6-6-6-6-|

                  I Have Been Lost
|------------------------------------------------------|
|------------------------------------------------------|
|-7-7--7-7-7--7-7-7--7-7-7--7-6-6--6-6-6--6-6-6--6-6-6-|
|-7-7--7-7-7--7-7-7--7-7-7--7-6-6--6-6-6--6-6-6--6-6-6-|
|-5-5--5-5-5--5-5-5--5-5-5--5-4-4--4-4-4--4-4-4--4-4-4-|
|------------------------------------------------------|

Down Every--- Road I've   Followed
|-------------------------------------------------|
|-------------------------------------------------|
|-------------------------------------------------|
|-8-8-8-8-8-8-8-8-8-8-8-8-5-5-5-5-5-5-5-5-5-5-5-5-|
|-8-8-8-8-8-8-8-8-8-8-8-8-5-5-5-5-5-5-5-5-5-5-5-5-|
|-6-6-6-6-6-6-6-6-6-6-6-6-3-3-3-3-3-3-3-3-3-3-3-3-|

                   Out in the Dark----------------
|------------------------------------------------------|
|------------------------------------------------------|
|-7-7--7-7-7--7-7-7--7-7-7--7-9-9--9-9-9--9-9-9--9-9-9-|
|-7-7--7-7-7--7-7-7--7-7-7--7-9-9--9-9-9--9-9-9--9-9-9-|
|-5-5--5-5-5--5-5-5--5-5-5--5-7-7--7-7-7--7-7-7--7-7-7-|
|------------------------------------------------------| 
      On My Way Home
|--------------------------------------------------------------------------|
|--------------------------------------------------------------------------|
|-----------------------------------7------------7------------7------------|
|-8-8-8-8-8-8-8-8-8-8-8-8-5-5-5-5-5-7--5-5-5-5-5-7--5-5-5-5-5-7--5-5-5-5-5-|
|-8-8-8-8-8-8-8-8-8-8-8-8-5-5-5-5-5-5--5-5-5-5-5-5--5-5-5-5-5-5--5-5-5-5-5-|
|-6-6-6-6-6-6-6-6-6-6-6-6-3-3-3-3-3--0-3-3-3-3-3--0-3-3-3-3-3--0-3-3-3-3-3-|

Chorus (Heavy Distorion)
  Everybody---------------- Knows That  You're  In-
|---------------------------------------------------|
|---------------------------------------------------|
|-7-7-7-7-7-7-7-7-7-7-7-7-7-6-6-6-6-6-6-3-3-3-3-3-3-|
|-7-7-7-7-7-7-7-7-7-7-7-7-7-6-6-6-6-6-6-3-3-3-3-3-3-|
|-5-5-5-5-5-5-5-5-5-5-5-5-5-4-4-4-4-4-4-1-1-1-1-1-1-|
|---------------------------------------------------|
-Sane
|------------------------------------------------------|
|------------------------------------------------------|
|-----------7-------------7-------------7--------------|
|-5-5-5-5-5-7---5-5-5-5-5-7---5-5-5-5-5-7---5-5-5-5-5--|
|-5-5-5-5-5-5---5-5-5-5-5-5---5-5-5-5-5-5---5-5-5-5-5--|
|-3-3-3-3-3-0-0-3-3-3-3-3-0-0-3-3-3-3-3-0-0-3-3-3-3-3--| 3x

  Everybody---------------- Knows That  You're  In-
|---------------------------------------------------|
|---------------------------------------------------|
|-7-7-7-7-7-7-7-7-7-7-7-7-7-9-9-9-9-9-9-3-3-3-3-3-3-|
|-7-7-7-7-7-7-7-7-7-7-7-7-7-9-9-9-9-9-9-3-3-3-3-3-3-|
|-5-5-5-5-5-5-5-5-5-5-5-5-5-7-7-7-7-7-7-1-1-1-1-1-1-|
|---------------------------------------------------|
-Sane
|------------------------------------------------------|
|------------------------------------------------------|
|-----------7-------------7-------------7--------------|
|-5-5-5-5-5-7---5-5-5-5-5-7---5-5-5-5-5-7---5-5-5-5-5--|
|-5-5-5-5-5-5---5-5-5-5-5-5---5-5-5-5-5-5---5-5-5-5-5--|
|-3-3-3-3-3-0-0-3-3-3-3-3-0-0-3-3-3-3-3-0-0-3-3-3-3-3--| 1x

Chorus Lead

  Everybody------------------- Knows   That     You're        In-   
|-----------------------------------------------------------------|
|-----------------------------------------------------------------|
|-7777-9999-10101010-12121212-13131313-12121212-10101010-12121212-|
|-----------------------------------------------------------------|
|-----------------------------------------------------------------|
|-----------------------------------------------------------------|
  Sane
|-------------------------------------------|
|-------------------------------------------|
|-77777777h9p77777777h9p77777777h9p77777777-|
|-------------------------------------------|
|-------------------------------------------|
|-------------------------------------------| 3x

  Everybody------------------ Knows That    You're        In-   
|-------------------------------------------------------------|
|-------------------------------------------------------------|
|-7777-9999-10101010-12121212-9999-10101010-12121212-13131313-|
|-------------------------------------------------------------|
|-------------------------------------------------------------|
|-------------------------------------------------------------|
  Sane
|-------------------------------------------|
|-------------------------------------------|
|-77777777h9p77777777h9p77777777h9p77777777-|
|-------------------------------------------|
|-------------------------------------------|
|-------------------------------------------| 1x

Bridge

Rhythm
|-----------------------------------------------|
|-----------------------------------------------|
|-3-3---3-3---3-3---3-3---7-7---7-7---5-5---5-5-|
|-3-3---3-3---3-3---3-3---7-7---7-7---5-5---5-5-|
|-1-1---1-1---1-1---1-1---5-5---5-5---3-3---3-3-|
|-----0-----0-----0-----0-----0-----0-----0-----|4x

Solo (oh boy, this could be pretty rough)
|-----------------------------------------8h10p8------12~-|
|-----------------------------------------------10p8------|
|-7^-5h7-7--5h7-7p5-7/9-9~--10--12^12^-10-----------9-----|
|--------------7------------------------------------------|
|---------------------------------------------------------|
|---------------------------------------------------------| 

|-13^13^-10---10-17--------------------------------------|
|------------------18-15-17------15----------------------|
|--------------------------17-14----14-10-(14-10-12)-7~--|
|--------------------------------------------------------|
|--------------------------------------------------------|
|--------------------------------------------------------|

  And I Feel Noth-ing - Am I Better Yet
|-------------------------------------------------| 
|-------------------------------------------------| 
|-3-3-3-3-3-3-3-3-3-3-3-3-7-7-7-7-7-7-5-5-5-5-5-5-|                         
|-3-3-3-3-3-3-3-3-3-3-3-3-7-7-7-7-7-7-5-5-5-5-5-5-|
|-1-1-1-1-1-1-1-1-1-1-1-1-5-5-5-5-5-5-3-3-3-3-3-3-|
|-------------------------------------------------| 3x

  And I Feel Noth--ing Am I Better Yet 
|--------------------------------------------------|
|--------------------------------------------------|
|-3-3-3-3-3-3-3-3-3-3-3-3-----------7--------------|
|-3-3-3-3-3-3-3-3-3-3-3-3-5-5-5-5-5-7--5-5-5-5-5---|
|-1-1-1-1-1-1-1-1-1-1-1-1-5-5-5-5-5-5--5-5-5-5-5---|
|-------------------------3-3-3-3-3--0-3-3-3-3-3---| 1x

Chorus (Heavy Distorion)
  Everybody---------------- Knows That  You're  In-
|---------------------------------------------------|
|---------------------------------------------------|
|-7-7-7-7-7-7-7-7-7-7-7-7-7-6-6-6-6-6-6-3-3-3-3-3-3-|
|-7-7-7-7-7-7-7-7-7-7-7-7-7-6-6-6-6-6-6-3-3-3-3-3-3-|
|-5-5-5-5-5-5-5-5-5-5-5-5-5-4-4-4-4-4-4-1-1-1-1-1-1-|
|---------------------------------------------------|
-Sane
|------------------------------------------------------|
|------------------------------------------------------|
|-----------7-------------7-------------7--------------|
|-5-5-5-5-5-7---5-5-5-5-5-7---5-5-5-5-5-7---5-5-5-5-5--|
|-5-5-5-5-5-5---5-5-5-5-5-5---5-5-5-5-5-5---5-5-5-5-5--|
|-3-3-3-3-3-0-0-3-3-3-3-3-0-0-3-3-3-3-3-0-0-3-3-3-3-3--| 4x

Chorus Lead

  Everybody------------------- Knows   That     You're        In-   
|-----------------------------------------------------------------|
|-----------------------------------------------------------------|
|-7777-9999-10101010-12121212-13131313-12121212-10101010-12121212-|
|-----------------------------------------------------------------|
|-----------------------------------------------------------------|
|-----------------------------------------------------------------|
  Sane
|-------------------------------------------|
|-------------------------------------------|
|-77777777h9p77777777h9p77777777h9p77777777-|
|-------------------------------------------|
|-------------------------------------------|
|-------------------------------------------| 3x

  Everybody------------------ Knows That    You're        In-   
|-------------------------------------------------------------|
|-------------------------------------------------------------|
|-7777-9999-10101010-12121212-9999-10101010-12121212-13131313-|
|-------------------------------------------------------------|
|-------------------------------------------------------------|
|-------------------------------------------------------------|
  Sane
|-------------------------------------------|
|-------------------------------------------|
|-77777777h9p77777777h9p77777777h9p77777777-|
|-------------------------------------------|
|-------------------------------------------|
|-------------------------------------------| 1x

TANGLED UP IN PLAID transcribed by tylersugarcarlo

Intro 
Guitar I (this is actually a piano, which returns with the same part right before the 2nd chorus)

|-14-15-14-12-11-12-14-15-12-11-9-11-14-15-14-12-11-12-14-15-14-12-11-12-|
|------------------------------------------------------------------------|
|------------------------------------------------------------------------|
|------------------------------------------------------------------------|
|------------------------------------------------------------------------|
|------------------------------------------------------------------------|

Guitar II (high reverb with slight distortion)
|-14~---------12-14~---15-12~--------12-17~------19-14~---12-11-12--20~--|
|------------------------------------------------------------------------|
|------------------------------------------------------------------------|
|------------------------------------------------------------------------|
|------------------------------------------------------------------------|
|------------------------------------------------------------------------|

Guitar I Cont.
|-14-15-14-----|
|--------------|
|----------9~--|
|----------9~--|
|----------7~--|
|--------------|

Guitar II Cont.
|----------14~-|
|--------------|
|--------------|
|--------------|
|--------------|
|--------------|

Verse
Guitar I (medium distortion)
   G                         G sharp 
|-----------------------------------------------------|
|-----------------------------------------------------|
|-----------------------------------------------------|
|-----------------------------------------------------|
|-----------------------------------------------------|
|-/7-7^0-7-7^0-7-7^0h7^0-8--8^0-8^0-8--8--8--8^8^8^0--|
  G                     G sharp       C 
|------------------------------------------|
|------------------------------------------|
|-------------------------------------13~--|
|-------------------------------------14~--|
|-------------------------------------14~--|
|-7-7p0-7^0-7^0-7-0-7-0-8--8^0-8--8^0-12~--|

Guitar II fill
|------------------------------|
|------------------------------|
|-14--12p11/8~~~~-------9~~~~--|
|------------------------------|
|------------------------------|
|------------------------------|

Guitar I Verse
  I Slipped  Didn't Mean, Didn't Mean to Do it That 
|--------------------------------------------------|
|--------------------------------------------------|
|--------------------------------------------------|
|--------------------------------------------------|
|--------------------------------------------------|
|-7-7p0-7^0-7^0-7-0-7-0-8--8^0-8--8^0-8-^0-8p0-8p0-|

 Way  Well I Blew in on a Whim  Gone Tomorrow I'm Gone
|----------------------------------------------------|
|----------------------------------------------------|
|----------------------------------------------------|
|----------------------------------------------------|
|----------------------------------------------------|
|-7-7^0-7-7^0-7-7^0h7^0-8--8^0-8^0-8--8--8--8^8^8^0--|

Guitar II Lead
|-----------11-12--14--19~~~~~--|
|-------------------------------|
|-------------------------------|
|-------------------------------|
|-------------------------------|
|-------------------------------|

 Today      Oh Yeah             Oh Yeah 
|--------------------------------------------------|
|--------------------------------------------------|
|--------------------------------------------------|
|--------------------------------------------------|
|--------------------------------------------------|
|-7-7p0-7^0-7^0-7-0-7-0-8--8^0-8--8^0-8-^0-8p0-8p0-|

Guitar II Lead
|-----------------------------------------------------------|
|-----------------------------------------------------------|
|------------------------------------9^^-11^(harmonic)~~~~~-|
|-----------------------------------------------------------|
|-----------------------------------------------------------|
|-----------------------------------------------------------|

  Whoa-oohwhoa-oohwhoa-yeah                Hangin'
|--------------------------------------------------|
|--------------------------------------------------|
|--------------------------------------------------|
|--------------------------------------------------|
|--------------------------------------------------|
|-7-7p0-7^0-7^0-7-0-7-0-8--8^0-8--8^0-8-^0-8p0-8p0-|

Guitar II
|---------------------------------------14~~~~~~~~-|
|--------------------------------------------------|
|--------------------------------------------------|
|--------------------------------------------------|
|--------------------------------------------------|
|--------------------------------------------------|
  Low            Hangin' Low          Whoa-ooh-oh
|----------------------------------------------------|
|----------------------------------------------------|
|----------------------------------------------------|
|----------------------------------------------------|
|----------------------------------------------------|
|-7-7^0-7-7^0-7-7^0h7^0-8--8^0-8^0-8--8--8--8^8^8^0--|

Guitar II lead
|-----------------------------------------12~----15~-17~--12~-|
|-------------------------------------------------------------|
|-------------------------------------------------------------|
|-------------------------------------------------------------|
|-------------------------------------------------------------|
|-------------------------------------------------------------|
               Hangin' Low                  
|---------------------------------------|
|---------------------------------------|
|----------------------------------13~--|
|----------------------------------14~--|
|----------------------------------14~--|
|-7-7^0-7-7^0-7-7^0h7^0-8--8^0-8^0-12~--|

Both Guitars (Heavy Distortion)
|----------|
|----------|
|----------|
|-10--10---|
|-10--10---|
|-8p0-8p0--|
       Come Let's Play Along and  Let Each Other  
|--------------------------------------------------|
|--------------------------------------------------|
|--------------------------------------------------|
|-9-9-9-9-9-9-9-9-9-9-9-10-10--10-10--10---10--10--|
|-9-9-9-9-9-9-9-9-9-9-9-10-10--10-10--10---10--10--|
|-7-7p0-7^0-7^0-7-0-7-0-8--8^0-8--8^0-8-^0-8p0-8p0-|

 Lose A Win Would Cause an Alarm  Don't Matter to Me Don't Matter
|------------------------------------------------------------|
|----------------------------------13-13-13-13-13-13-13-13---|
|----------------------------------9--9--9--9--9--9--9--9----|
|-9-9-9-9-9-9-9-9-9-9-9-10-10--10--10-10-10-10-10-10-10-10---|
|-9-9-9-9-9-9-9-9-9-9-9-10-10--10--10-10-10-10-10-10-10-10---|
|-7-7^0-7-7^0-7-7^0h7^0-8--8^0-8---8--8--8--8--8--8--8--8----|

 To You      Oh Yeah    Oh Yeah
|--------------------------------------------------|
|--------------------------------------------------|
|--------------------------------------------------|
|-9-9-9-9-9-9-9-9-9-9-9-10-10--10-10--10---10--10--|
|-9-9-9-9-9-9-9-9-9-9-9-10-10--10-10--10---10--10--|
|-7-7p0-7^0-7^0-7-0-7-0-8--8^0-8--8^0-8-^0-8p0-8p0-|

  Whoa-oohwhoa-oohwhoa-yeah
|----------------------------------------------|
|----------------------------------------------|
|----------------------------------------------|
|-9-9-9-9-9-9-9-9-9-9-9-10-10--10-10--10---10--|
|-9-9-9-9-9-9-9-9-9-9-9-10-10--10-10--10---10--|
|-7-7p0-7^0-7^0-7-0-7-0-8--8^0-8--8^0-8-^0-8p0-|

Chorus (Heavy Distortion)

    A sharp            C  A sharp            C                       
                       I Could Keep You All For
|-----------------------------------------------|
|-----------------------------------------------|
|-----------------------------------------------|
|-3/12p10-12p10-12p10-/14-12p10-12p10-12p10-/14-|
|-3/12p10-12p10-12p10-/14-12p10-12p10-12p10-/14-|
|-1/10-10-10-10-10-10-/12-10-10-10-10-10-10-/12-|
 
  G sharp         C G sharp          C 
  Myself             I Know You Gotta Be
|---------------------------------------|
|---------------------------------------|
|---------------------------------------|
|-10p8-10p8-10p8-/14-10p8-10p8-10p8-/14-|
|-10p8-10p8-10p8-/14-10p8-10p8-10p8-/14-|
|-8--8-8--8-8--8-/12-8--8-8--8-8--8-/12-|

  F          C   F      B     G sharp         C  G sharp         C    
  Free                  So Free Yourself      
|--------------------------------------------------------------------|
|--------------------------------------------------------------------|
|--------------------------------------------------------------------|
|-7-7-7-7-7--14--7-7-7-9-9-9--10p8-10p8-10p8-/14-10p8-10p8-10p8-/14--|
|-7-7-7-7-7--14--7-7-7-9-9-9--10p8-10p8-10p8-/14-10p8-10p8-10p8-/14--|
|-5-5-5-5-5--12--5-5-5-7-7-7--8--8-8--8-8--8-/12-8--8-8--8--8-8-/12--| 2x

Verse II
                  Hangin' Low           Ooooohoh
|------------------------------------------------------|
|------------------------------------------------------|
|------------------------------------------------------|
|------------------------------------------------------|
|------------------------------------------------------|
|-1/7-7^0-7-7^0-7-7^0h7^0-8--8^0-8^0-8--8--8--8^8^8^0--|


 Hangin' Low
|----------------------------------------------------|
|----------------------------------------------------|
|----------------------------------------------------|
|------------------------------------------------10\-|
|------------------------------------------------10\-|
|-7-7p0-7^0-7^0-7-0-7-0-8--8^0-8--8^0-0-7-0-12-0--8\-|

Lead
|------------------------------------------------------------|
|------------------------------------------------------------|
|-------------------------------------------------14^/16~~~--|
|------------------------------------------------------------|
|------------------------------------------------------------|
|------------------------------------------------------------|
         Self-Inflicted Wound Your Gift Impeccable Aim 
|--------------------------------------------------|
|--------------------------------------------------|
|--------------------------------------------------|
|-9-9-9-9-9-9-9-9-9-9-9-10-10--10-10--10---10--10--|
|-9-9-9-9-9-9-9-9-9-9-9-10-10--10-10--10---10--10--|
|-7-7p0-7^0-7^0-7-0-7-0-8--8^0-8--8^0-8-^0-8p0-8p0-|

 Can Really Clear a Room, All the Bodies Pile Up in Your Way
|--------------------------------------------------------|
|---------------------------------------------------11~--|
|-----------------------9---11--12--11--9---11--12-------|
|-9-9-9-9-9-9-9-9-9-9-9-10--10--10--10--10--10--10--10---|
|-9-9-9-9-9-9-9-9-9-9-9-10--10--10--10--10--10--10--10---|
|-7-7^0-7-7^0-7-7^0h7^0-8---8---8---8---8---8---8---8----|

 Oh Yeah (It Hurts) Whoah yeah (Well it Must) Whoa Yeah
|--------------------------------------------------|
|--------------------------------------------------|
|--------------------------------------------------|
|-9-9-9-9-9-9-9-9-9-9-9-10-10--10-10--10---10--10--|
|-9-9-9-9-9-9-9-9-9-9-9-10-10--10-10--10---10--10--|
|-7-7p0-7^0-7^0-7-0-7-0-8--8^0-8--8^0-8-^0-8p0-8p0-|

Lead
|--------------------------------------------------------|
|--------------------------------------------------------|
|-7^/9^~~~~~~~~~~~~~~~8^/9^~~~~~~~~~~9^/11^~~~~~~~~~~~~--|
|--------------------------------------------------------|
|--------------------------------------------------------|
|--------------------------------------------------------|

Chorus II
Chorus (Heavy Distortion)

    A sharp            C  A sharp            C                       
                       I Could Keep You All For
|-----------------------------------------------|
|-----------------------------------------------|
|-----------------------------------------------|
|-3/12p10-12p10-12p10-/14-12p10-12p10-12p10-/14-|
|-3/12p10-12p10-12p10-/14-12p10-12p10-12p10-/14-|
|-1/10-10-10-10-10-10-/12-10-10-10-10-10-10-/12-|
 
  G sharp         C G sharp          C 
  Myself             I Know You Gotta Be
|---------------------------------------|
|---------------------------------------|
|---------------------------------------|
|-10p8-10p8-10p8-/14-10p8-10p8-10p8-/14-|
|-10p8-10p8-10p8-/14-10p8-10p8-10p8-/14-|
|-8--8-8--8-8--8-/12-8--8-8--8-8--8-/12-|

  F          C   F      G     G sharp         C  G sharp         C    
  Free                  So Free Yourself ("To Kill Yourself" 2nd time)     
|--------------------------------------------------------------------|
|--------------------------------------------------------------------|
|--------------------------------------------------------------------|
|-7-7-7-7-7--14--7-7-7-9-9-9--10p8-10p8-10p8-/14-10p8-10p8-10p8-/14--|
|-7-7-7-7-7--14--7-7-7-9-9-9--10p8-10p8-10p8-/14-10p8-10p8-10p8-/14--|
|-5-5-5-5-5--12--5-5-5-7-7-7--8--8-8--8-8--8-/12-8--8-8--8--8-8-/12--| 2x

Solos (two leads over bass driven chorus rhythm) not so much dueling,
more walzting leads

Guitar I (the end notes are tremloe picked) 
|----------------------------------------------------------|
|----------------------------------------------------------|
|-11^(12)-11~~~-11^(12)-11~~~-11h12p9~~~-9/12\9~~~---------|
|----------------------------------------------------------|
|----------------------------------------------------------|
|----------------------------------------------------------|

|----------------------------------------|
|----------------------------------------|
|-12/6~~~~--12/6~~~~--5~~~~-5/12\5~~~~~--|
|----------------------------------------|
|----------------------------------------|
|----------------------------------------|
After This point Guitar I plays chorus rhythm while other guitar pushes out
more lead

Guitar II Lead 

|-14^(15)-14~~-14^(15)-14~~~-14h15p14/12~~~--12/15\12~~~~--|
|----------------------------------------------------------|
|----------------------------------------------------------|
|----------------------------------------------------------|
|----------------------------------------------------------|
|----------------------------------------------------------|

|-15\9~~~~--15\9~~~~------------------------------|
|--------------------10h12-12^(13)~~~-12-10/17~~~-|
|-------------------------------------------------|
|-------------------------------------------------|
|-------------------------------------------------|
|-------------------------------------------------|

*Guitar I goes back to rhythm 
|----------------------------------------------------------------------|
|----------------------------------------------------------------------|
|----------------------------------------------------------------------|
|-7-7-7-7-7--14--7-7-7-7-7--14--10p8-10p8-10p8-/14-10p8-10p8-10p8-/14--|
|-7-7-7-7-7--14--7-7-7-7-7--14--10p8-10p8-10p8-/14-10p8-10p8-10p8-/14--|
|-5-5-5-5-5--12--5-5-5-5-5--12--8--8-8--8-8--8-/12-8--8-8--8--8-8-/12--| 3x

Guitar II
|-------15^-15^/9~~-15/9~~~--17h19-19^(20)-19-17-22^(24)-22^(24)~~~--|
|-15h17--------------------------------------------------------------|
|--------------------------------------------------------------------|
|--------------------------------------------------------------------|
|--------------------------------------------------------------------|
|--------------------------------------------------------------------|

|-\21~~~--21\12~~~--12/17~-15~-19~-12~--|
|---------------------------------------|
|---------------------------------------|
|---------------------------------------|
|---------------------------------------|
|---------------------------------------|

|-12h15p12/9~~~-12h15p12/8~~~-------------------------------|
|------------------------------10h12-12^(13)-12-10/17~~~~~--|
|-----------------------------------------------------------|
|-----------------------------------------------------------|
|-----------------------------------------------------------|
|-----------------------------------------------------------|

Guitar II 
|------|
|------|
|------|
|-3/9--|
|-3/9--|
|-1/7--|

BURN THE WITCH transcribed by daniel c b, slipknot_skater@hotmail.com

Standard tuning, Distorted guitar

eI------------------------------------------| .I
BI------------------------------------------| .I
GI------------------------------------------| .I
DI------------------------------------------| .I
AI-2-2-----2-2-----2-2-----2-2-[12\2]-------| .I
EI-0-0-----0-0-----0-0-----0-0--------------| .I

Instrumentals come in...

Verse Riff. Played by Guitar 1

eI----------------------------------| .I
BI----------------------------------| .I
GI----------------------------------| .I
DI-----(5)p2------------------------| .I X8 times
AI-2-2------5--2-2-(5)p2------------| .I
EI-0-0---------0-0-------5-3--------| .I
       LP-----I   LP----------------| .I

Guitar 2: fill 1 (00:22-00:23 seconds in)

eI------------------------7-7-------| .I
BI-----------------------5---8------| .I
GI------------------5h7h8-----------| .I
DI----------------------------------| .I
AI----------------------------------| .I
EI----------------------------------| .I

Guitar 2: fill 2 (00:30-00:31 seconds in)

eI-------------------7----7~----------| .I
BI-----------------(5~)-(5~)----------| .I
GI------------------------------------| .I
DI------------------------------------| .I
AI------------------------------------| .I
EI------------------------------------| .I

"Holding hands
Skipping like a stone
On our way"...

Guitar 2 fill 3 (00:38-00:39 seconds in)

eI------------7-10-7--------------------------------------------------------|I
BI------------5-------5~----------------------------------------------------|I  Intro  Verse 1  Chorus  Verse 2  Chorus  Interlude  Interlude, continued  Chorus  Solo  Outro    

Added On December 16th, 2013

SHARE

Comments

blog comments powered by Disqus

ADVERTISEMENT