Queens Of The Stone Age Tabs

Turnin On The Screw

3 versions

TAB

            Turnin' On The Screw (by Queens Of The Stone Age)
====================

Tab-Tuning: Standard
I don't think the studioversion is played in Drop-C, you can try it though...


------------------------\
(x = Muted Strings)     |
/// = Slide Up (long)   |
\\\ = Slide Down (long) |
------------------------/

Ok, I'm sure Verses and Chorus are 99% accurate!
I tabbed only the Rhythm Guitars, no Solo!


Verses (And Intro):

e:---9---9---xx9---9---xx9---9---xx9-----9------------|
b:---9---9---xx9---9---xx9---9---xx9-----9------------|
G:---12--10--xx12--10--xx12--10--xx12-10-12~----------| Reapeated through the whole Song...
D:---11--11--xx11--11--xx11--11--xx11----11-----------| 
A:---11--11--xx11--11--xx11--11--xx11----11----x------|
E:---9---9---xx9---9---xx9---9---xx9-----9-----x-9///-|


This little riff (Not very sure about it):
e:-------------------------------|
b:-------------------------------|
G:-4/7\4/7\4\-4/7\4/7\4\-4/7\4/7-|  Is played a few times ... 
D:-2/5\2/5\2\-2/5\2/5\2\-2/5\2/5-|
A:-------------------------------|
E:-------------------------------|


Chorus:

e:---14---14---xx14---14---xx17---17---xx17---17---xx----------xx---9---9---xx9---9---xx9---9---xx9-----9------------|
b:---14---14---xx14---14---xx17---17---xx17---17---xx----------xx---9---9---xx9---9---xx9---9---xx9-----9------------|
G:---17---15---xx17---15---xx20---18---xx20---18---xx18-16-18\-xx---12--10--xx12--10--xx12--10--xx12-10-12~----------|
D:---16---16---xx16---16---xx19---19---xx19---19---xx----------xx---11--11--xx11--11--xx11--11--xx11----11-----------| 
A:---16---16---xx16---16---xx19---19---xx19---19---xx----------xx---11--11--xx11--11--xx11--11--xx11----11----x------|
E:---14---14---xx14---14---xx17---17---xx17---17---xx----------xx---9---9---xx9---9---xx9---9---xx9-----9-----x-9///-|

Hope this is a help for all the QOTSA Fans out there!^^...    

Added On December 16th, 2013

SHARE

Comments

blog comments powered by Disqus

VERSIONS

ADVERTISEMENT