Rasmus Tabs

Night After Night Out Of The Shadows

2 versions

TAB

            Night After Night Out Of The Shadows Tab by Rasmus


This is a really nice song!
Hope u njoy it!

KEY:
¡± = double tap note fast
¡ú = continue chords to next line
^ = bend

The song is only played in 6 chords: Em, B, F#m, C, G and Am

Intro:
(electric)
e|----------------------------------------------|
b|----------------------------------------------|
g|----------------------------------------------|
d|-2-2-5p2-2-5-4-2-2------------------------1-1-|
a|------------------------2-2-5p2-2-5-2-2-2-----|
e|----------------------------------------------|

(power chords are in distortion)
|-------------------------------------------|
|-------------------------------------------|
|-------------------------------------------|
|-2-2-5p2-5-4-2-2-------------------9--2--0-|
|------------------------2-2-5p2-2--9--4--2-|
|-----------------------------------7--4--2-|

Intro part 2:
(distortion)
|----------------------------------------------|
|----------------------------------------------|
|----------------------------------------------|
|-2-2-5p2-2-5-4-2-2------------------------1-1-|
|------------------------2-2-5p2-2-5-2-2-2-----|
|----------------------------------------------|  x3

|--------------------------------------------------|
|--------------------------------------------------|
|--------------------------------------------------|
|-2-2-5p2-2-5-4-2-2------------------------1-1-1-1-|
|------------------------2-2-5p2-2-5-2-2-2---------|
|--------------------------------------------------| x1

Verse 1:
|-----------------------------------|
|-----------------------------------|
|-----------------------------------|
|-2-2-2-2-2-2-2-2--4-4-4-4--2-2-2-2-|
|-2-2-2-2-2-2-2-2--4-4-4-4--2-2-2-2-|
|-0-0-0-0-0-0-0-0--2-2-2-2--0-0-0-0-|
Heaven sent you to bring the answer

|-----------------------------------|
|-----------------------------------|
|-----------------------------------|
|-2-2-2-2-2-2-2-2--4-4-4-4--2-2-2-2-|
|-2-2-2-2-2-2-2-2--4-4-4-4--2-2-2-2-|
|-0-0-0-0-0-0-0-0--2-2-2-2--0-0-0-0-|
Heaven sent you to cure this cancer

|-----------------------------------|
|-----------------------------------|
|-----------------------------------|
|-2-2-2-2--4-4-4-4-4-4-4-4--5-5-5-5-|
|-2-2-2-2--4-4-4-4-4-4-4-4--5-5-5-5-|
|-0-0-0-0--2-2-2-2-2-2-2-2--3-3-3-3-|
For a moment ¨C Unbeatable chance

|-----------------------------------|
|-----------------------------------|
|-----------------------------------|
|-2-2-2-2--4-4-4-4-4-4-4-4--2-2-2-2-|
|-2-2-2-2--4-4-4-4-4-4-4-4--2-2-2-2-|
|-0-0-0-0--2-2-2-2-2-2-2-2--0-0-0-0-|
For a moment ¨C The world in my hands

Bridge:
|-----------------------------------------------|
|-----------------------------------------------|
|------------------5-5-5-5--4-4-4-4-------------|
|-2-2-2-2-2-2-2-2--5-5-5-5--4-4-4-4--2-2-¡ú-|
|-2-2-2-2-2-2-2-2--3-3-3-3--2-2-2-2--2-2-¡ú-|
|-0-0-0-0-0-0-0-0--3-3-3-3--2-2-2-2--0-0-¡ú-|
Like an angel you came every time when I prayed

|-----------------------------------------------|
|-----------------------------------------------|
|------------------5-5-5-5--4-4-4-4-------------|
|-2-2-2-2-2-2-2-2--5-5-5-5--4-4-4-4--2-2-¡ú-|
|-2-2-2-2-2-2-2-2--3-3-3-3--2-2-2-2--2-2-¡ú-|
|-0-0-0-0-0-0-0-0--3-3-3-3--2-2-2-2--0-0-¡ú-|
Gaurdian of my dreams watching me when I sleep

|--------------------------------------------------|
|--------------------------------------------------|
|------------------5-5-5-5--4-4-4-4----------------|
|-2-2-2-2-2-2-2-2--5-5-5-5--4-4-4-4--2-2-2-2¡ú-|
|-2-2-2-2-2-2-2-2--3-3-3-3--2-2-2-2--2-2-2-2¡ú-|
|-0-0-0-0-0-0-0-0--3-3-3-3--2-2-2-2--0-0-0-0¡ú-|
Like an angel you came every time when I screamed

|-------------------------|
|-------------------------|
|-------------------------|
|-2-2-2-2-2-2-2-2-2-2-2-2-|
|-2-2-2-2-2-2-2-2-2-2-2-2-|
|-0-0-0-0-0-0-0-0-0-0-0-0-|

Chorus:
|-------------------------|
|-------------------------|
|-------------------------|
|-2-2-2-2-2-2-2-2-2-2-2-2-|
|-2-2-2-2-2-2-2-2-2-2-2-2-|
|-0-0-0-0-0-0-0-0-0-0-0-0-|
Time after time I lose again

|---------------------------------|
|---------------------------------|
|---------------------------------|
|-7-7-7-7-7-7-7-7--9-9-9-9--9-4-2-|
|-7-7-7-7-7-7-7-7--9-9-9-9--9-4-2-|
|-5-5-5-5-5-5-5-5--7-7-7-7--7-2-0-|
Night after night I wake up shaking cause my world is breaking

|-------------------------|
|-------------------------|
|-------------------------|
|-2-2-2-2-2-2-2-2-2-2-2-2-|
|-2-2-2-2-2-2-2-2-2-2-2-2-|
|-0-0-0-0-0-0-0-0-0-0-0-0-|
I¡¯m fool enough to fail again

|---------------------------------|
|---------------------------------|
|---------------------------------|
|-7-7-7-7-7-7-7-7--9-9-9-9--9-4-2-|
|-7-7-7-7-7-7-7-7--9-9-9-9--9-4-2-|
|-5-5-5-5-5-5-5-5--7-7-7-7--7-2-0-|
Night after night I wake up crying cause I feel like dying

Interlude:
|----------------------------------------------|
|----------------------------------------------|
|----------------------------------------------|
|-2-2-5p2-2-5-4-2-2------------------------1-1-|
|------------------------2-2-5p2-2-5-2-2-2-----|
|----------------------------------------------|

|--------------------------------------------------|
|--------------------------------------------------|
|--------------------------------------------------|
|-2-2-5p2-2-5-4-2-2------------------------1-1-1-1-|
|------------------------2-2-5p2-2-5-2-2-2---------|
|--------------------------------------------------|

Verse 2:
|-----------------------------------|
|-----------------------------------|
|-----------------------------------|
|-2-2-2-2-2-2-2-2--4-4-4-4--2-2-2-2-|
|-2-2-2-2-2-2-2-2--4-4-4-4--2-2-2-2-|
|-0-0-0-0-0-0-0-0--2-2-2-2--0-0-0-0-|
Still disconnected and unprotected

|-----------------------------------|
|-----------------------------------|
|-----------------------------------|
|-2-2-2-2-2-2-2-2--4-4-4-4--2-2-2-2-|
|-2-2-2-2-2-2-2-2--4-4-4-4--2-2-2-2-|
|-0-0-0-0-0-0-0-0--2-2-2-2--0-0-0-0-|
Still I¡¯m haunted but unwanted

|-----------------------------------|
|-----------------------------------|
|-----------------------------------|
|-2-2-2-2--4-4-4-4-4-4-4-4--5-5-5-5-|
|-2-2-2-2--4-4-4-4-4-4-4-4--5-5-5-5-|
|-0-0-0-0--2-2-2-2-2-2-2-2--3-3-3-3-|
For a moment ¨C Unbreakable star

|-----------------------------------|
|-----------------------------------|
|-----------------------------------|
|-2-2-2-2--4-4-4-4-4-4-4-4--2-2-2-2-|
|-2-2-2-2--4-4-4-4-4-4-4-4--2-2-2-2-|
|-0-0-0-0--2-2-2-2-2-2-2-2--0-0-0-0-|
For a moment ¨C You stayed in my arms

Bridge:
|-----------------------------------------------|
|-----------------------------------------------|
|------------------5-5-5-5--4-4-4-4-------------|
|-2-2-2-2-2-2-2-2--5-5-5-5--4-4-4-4--2-2-¡ú-|
|-2-2-2-2-2-2-2-2--3-3-3-3--2-2-2-2--2-2-¡ú-|
|-0-0-0-0-0-0-0-0--3-3-3-3--2-2-2-2--0-0-¡ú-|

Like an angel you came every time when I prayed

|-----------------------------------------------|
|-----------------------------------------------|
|------------------5-5-5-5--4-4-4-4-------------|
|-2-2-2-2-2-2-2-2--5-5-5-5--4-4-4-4--2-2-¡ú-|
|-2-2-2-2-2-2-2-2--3-3-3-3--2-2-2-2--2-2-¡ú-|
|-0-0-0-0-0-0-0-0--3-3-3-3--2-2-2-2--0-0-¡ú-|
Gaurdian of my dreams watching me when I sleep

|--------------------------------------------------|
|--------------------------------------------------|
|------------------5-5-5-5--4-4-4-4----------------|
|-2-2-2-2-2-2-2-2--5-5-5-5--4-4-4-4--2-2-2-2¡ú-|
|-2-2-2-2-2-2-2-2--3-3-3-3--2-2-2-2--2-2-2-2¡ú-|
|-0-0-0-0-0-0-0-0--3-3-3-3--2-2-2-2--0-0-0-0¡ú-|
Like an angel you came every time when I screamed

|-------------------------|
|-------------------------|
|-------------------------|
|-2-2-2-2-2-2-2-2-2-2-2-2-|
|-2-2-2-2-2-2-2-2-2-2-2-2-|
|-0-0-0-0-0-0-0-0-0-0-0-0-|

Chorus:
|-------------------------|
|-------------------------|
|-------------------------|
|-2-2-2-2-2-2-2-2-2-2-2-2-|
|-2-2-2-2-2-2-2-2-2-2-2-2-|
|-0-0-0-0-0-0-0-0-0-0-0-0-|
Time after time I lose again

|---------------------------------|
|---------------------------------|
|---------------------------------|
|-7-7-7-7-7-7-7-7--9-9-9-9--9-4-2-|
|-7-7-7-7-7-7-7-7--9-9-9-9--9-4-2-|
|-5-5-5-5-5-5-5-5--7-7-7-7--7-2-0-|
Night after night I wake up shaking cause my world is breaking

|-------------------------|
|-------------------------|
|-------------------------|
|-2-2-2-2-2-2-2-2-2-2-2-2-|
|-2-2-2-2-2-2-2-2-2-2-2-2-|
|-0-0-0-0-0-0-0-0-0-0-0-0-|
I¡¯m fool enough to fail again

|---------------------------------|
|---------------------------------|
|---------------------------------|
|-7-7-7-7-7-7-7-7--9-9-9-9--9-4-2-|
|-7-7-7-7-7-7-7-7--9-9-9-9--9-4-2-|
|-5-5-5-5-5-5-5-5--7-7-7-7--7-2-0-|
Night after night I wake up crying cause I feel like dying

Interlude 2:
|--------------------|
|--------------------|
|--------------------|
|-2---4^-------------|
|---2--------2----4^-|
|---------------2----| x2

Repeat intro:
(electric)
|----------------------------------------------|
|----------------------------------------------|
|----------------------------------------------|
|-2-2-5p2-2-5-4-2-2------------------------1-1-|
|------------------------2-2-5p2-2-5-2-2-2-----|
|----------------------------------------------|

(power chords are in distortion)
|-------------------------------------------|
|-------------------------------------------|
|-------------------------------------------|
|-2-2-5p2-5-4-2-2-------------------9--2--0-|
|------------------------2-2-5p2-2--9--4--2-|
|-----------------------------------7--4--2-|

Repeat intro part 2:
(distortion)
|----------------------------------------------|
|----------------------------------------------|
|----------------------------------------------|
|-2-2-5p2-2-5-4-2-2------------------------1-1-|
|------------------------2-2-5p2-2-5-2-2-2-----|
|----------------------------------------------|

|--------------------------------------------------|
|--------------------------------------------------|
|--------------------------------------------------|
|-2-2-5p2-2-5-4-2-2------------------------1-1-1-1-|
|------------------------2-2-5p2-2-5-2-2-2---------|
|--------------------------------------------------|

Chorus:
|-------------------------|
|-------------------------|
|-------------------------|
|-2-2-2-2-2-2-2-2-2-2-2-2-|
|-2-2-2-2-2-2-2-2-2-2-2-2-|
|-0-0-0-0-0-0-0-0-0-0-0-0-|
Time after time I lose again

|---------------------------------|
|---------------------------------|
|---------------------------------|
|-7-7-7-7-7-7-7-7--9-9-9-9--9-4-2-|
|-7-7-7-7-7-7-7-7--9-9-9-9--9-4-2-|
|-5-5-5-5-5-5-5-5--7-7-7-7--7-2-0-|
Night after night I wake up shaking cause my world is breaking

|-------------------------|
|-------------------------|
|-------------------------|
|-2-2-2-2-2-2-2-2-2-2-2-2-|
|-2-2-2-2-2-2-2-2-2-2-2-2-|
|-0-0-0-0-0-0-0-0-0-0-0-0-|
I¡¯m fool enough to fail again

|---------------------------------|
|---------------------------------|
|---------------------------------|
|-7-7-7-7-7-7-7-7--9-9-9-9--9-4-2-|
|-7-7-7-7-7-7-7-7--9-9-9-9--9-4-2-|
|-5-5-5-5-5-5-5-5--7-7-7-7--7-2-0-|
Night after night I wake up crying cause I feel like dying

x2

Outro:
|--------------------|
|--------------------|
|--------------------|
|-2---4^-------------|
|---2--------2----4^-|
|---------------2----|

This song rocks and now you know how 2 play it, so have fun!    

Added On December 5th, 2013

SHARE

Comments

blog comments powered by Disqus

VERSIONS

ADVERTISEMENT