Rebelution Tabs

Day By Day

1 versions

TAB

            Day By Day - Rebelution

Tabbed by: Nolan
Email: saticoyllnolanb@yahoo.com

Tuning: standard

This is off there newest album Peace of Mind. Such a bad ass song, pretty easy to play 
too. The only thing would be the slide out kinda thing Eric does during the intro riff, 
but that’s all just finding the timeing. Enjoy☺

e|---------------------------------------------------------------------|
B|---------------------------------------------------------------------|
G|---------------------------------------------------------------------|
D|---------------------------------------------------------------------|
A|---------0-2-3-5-3h---2h3p------------2-----22-0-22-0-22-------------|
E|--3-4/0--------------------3-4/---3-5----0---------------------------|

e|---------------------------------------------------------------------|
B|---------------------------------------------------------------------|
G|---------------------------------------------------------------------|
D|---------------------------------------------------------------------|
A|--------0-2-3-5-3h---2h3p------------2-------------------------------|
E|--3-4/0-------------------3-4/---3-5---0-----------------------------|

    Am  Dm  G   Em
e|--5---5---3---7------------------------------------------------------|
B|--5---6---3---8------------------------------------------------------|
G|--5---7---4---9------------------------------------------------------|
D|--7---7---5---9------------------------------------------------------|
A|--7---5---5---7------------------------------------------------------|
E|--5-------3----------------------------------------------------------|    

Added On December 16th, 2013

SHARE

Comments

blog comments powered by Disqus

ADVERTISEMENT