Red Tabs

Hide

1 versions

TAB

            Hide Tab by Red


Artist: Red
Song: Hide
Album: End Of Silence 
Tabbed By Kevin P.

Tuning:
Guitar 1 - Drop D tuned down a half step (Db, Ab,Db,Gb,Bb,Eb)
Guitar 2 - Drop D tuned down a half step (Db, Ab,Db,Gb,Bb,Eb)

[Intro]

Sorry, I cant quite get the really high part

Eb|---------|----------|
Bb|---------|----------|
Gb|---------|----------|
Db|-0--3--8-|-0--3--10-|
Ab|-0--3--8-|-0--3--10-| Play twice
Db|-0--3--8-|-0--3--10-|

[Verse 1]

Eb|------|---------------------|
Bb|------|---------------------|
Gb|------|---------------------|
Db|------|---------------------|
Ab|-0-0--|--0-0--0-0--0-0--0-0-|
Db|-0-0--|--0-0--0-0--0-0--0-0-|

[Chorus 1]

Eb|---------------|
Bb|---------------|
Gb|---------------|
Db|-8---0---3---5-| Play twice
Ab|-8---0---3---5-|
Db|-8---0---3---5-|

[Verse 2]

Eb|------|---------------------|
Bb|------|---------------------|
Gb|------|---------------------|
Db|------|---------------------|
Ab|-0-0--|--0-0--0-0--0-0--0-0-|
Db|-0-0--|--0-0--0-0--0-0--0-0-|

[Chorus 2]

Eb|---------------|
Bb|---------------|
Gb|---------------|
Db|-8---0---3---5-| Play 4 times
Ab|-8---0---3---5-|
Db|-8---0---3---5-|

[Bridge]

This Comees Immediatly after the chorus

Eb|---------------------|
Bb|---------------------|
Gb|---------------------|
Db|---------------------|
Ab|---------------------|
Db|-0-0--0--0-1-0--0--0-|

Eb|---------------------|
Bb|---------------------|
Gb|---------------------|
Db|---------------------|
Ab|-0-0--0--0-1-0--0--0-|
Db|-0-0--0--0-1-0--0--0-|

Eb|--------------------------|
Bb|--------------------------|
Gb|--------------------------|
Db|-XXXX---------------------|
Ab|-XXXX-0-0--0--0-1-0--0--0-|
Db|-XXXX-0-0--0--0-1-0--0--0-|

Eb|---------------------|
Bb|---------------------|
Gb|---------------------|
Db|---------------------|
Ab|-0-0--0--0-1-0--0--0-|
Db|-0-0--0--0-1-0--0--0-|

This part is played clean. The strumming pattern may noy be exact.

Eb|---------------------------------|
Bb|---------------------------------|
Gb|---------------------------------|
Db|-3-3-3-3-5-5-5-5-0-0-0-0-0-0-0-0-| Play 5 Times
Ab|-3-3-3-3-5-5-5-5-0-0-0-0-0-0-0-0-|
Db|-3-3-3-3-5-5-5-5-0-0-0-0-0-0-0-0-|


Distorted
Eb|-----------------|
Bb|-----------------|
Gb|-----------------|
Db|-3-3-3-3-5--7--0-| Play 4 Times
Ab|-3-3-3-3-5--7--0-|
Db|-3-3-3-3-5--7--0-|

[Chorus 3]

Eb|---------------|
Bb|---------------|
Gb|---------------|
Db|-8---0---3---5-| 
Ab|-8---0---3---5-|
Db|-8---0---3---5-|

Play 4 Times

then

Eb|-------------------------|
Bb|-------------------------|
Gb|-------------------------|
Db|-------------------------| Play 6 Times
Ab|-0-00-111111-0-00-333333-|
Db|-0-00--------0-00--------|

then

Eb|---------------|
Bb|---------------|
Gb|---------------|
Db|---------------|
Ab|-0-0--0--0-1-0-|
Db|-0-0--0--0-1-0-|

Then there's the piano part and its over.

Enjoy.    

Added On December 5th, 2013

SHARE

Comments

blog comments powered by Disqus

ADVERTISEMENT