Rhett And Link Tabs

Mosquitos Suck

1 versions

TAB

            Mosquitos Suck (rhett & link [p4a])

(intro)

e-----------------------------0-----------------------3-------------------|
b-----------------------------1-----------------------0-------------------|
g----------------------0------2----------------0------0---------------0---|
d--------------------0--------2--------------0--------0-------------0-----|
a-----------0-2-3--2-----0-0-----0-2-3-2-0/2---------------0-2-3-2------0-|
E--0-2-3------------------------------------------3-----------------------|

e----0-------------------|
b----1-------------------|
g----2----------------0--|
d----2--------------0----|
a-0-----0-2-3-2-0/2------|
E------------------------|

             G                            A
            (3)                          (5)
            (3)                          (7)
            (4)                          (7)
            (5)                          (6)
            (5)                          (5)
            (3)                          (5)
my first job was at a bakery, owned by a mosquito named chad...

      G                        D
     (3)                      (3)
     (0)                      (2)
     (0)                      (3)
     (0)                      (0)
     (2)                      (0)
     (3)                      (0)
mosquitos suck.         mosquitos suck...

         Thanks for using my tab :)    

Added On December 16th, 2013

SHARE

Comments

blog comments powered by Disqus

ADVERTISEMENT