Rocket Summer Tabs

Goodbye Waves And Driveways

2 versions

TAB

            Goodbye Waves And Driveways Tab by Rocket Summer


This is an awesome song that's pretty difficult.  There's definitely room for mistakes
beware. The notes that i put in parenthesis are played but their not as profound as the
Listening to the song is key to figuring this out or else this'll just look ridiculous. 
song is played on capo 2.

Intro- played during verse and 3x over all
                      strummed                                strummed
e------------------------0--------------------0------------------0----------|
B--0-----0----3-----3----3------3-------1---0----------------3---3------3---|
G-----2----------0-------0----4---4------(0)-----(0)---0---------0----4---4-|
D-----(2)-----2--(2)-----2--2--------------------------4--4------2--2-------|
A--2---------------------3--------------0---2---(2)----5--(5)----3----------|
E---------------------------------------------------------------------------|
                       strummed                                     strummed
e------------------------0--------------------------------------------------|
B--0-----0----3-----3----3------3-----------------3-------------------0-----|
G-----2----------0-------0----4---4-----2-----2---------2---2-----2---2-----|
D-----(2)-----2--(2)-----2--2-----------2--2------5--5------4--4------4-----|
A--2---------------------3--------------0--(0)----5--(5)----5--(5)----5-----|
E---------------------------------------------------------------------------|

Bridge--"And you see it's hard for me to breath"
 Strummed        Strummed
e--0-------3-----2--0------------------------------|
B--0--------(0)--0--2--2-----2---2-----2---2-----2-|
G--0----0--0--(3)---0----0---------0---------0-----|
D--2--2-2-----------2------2---------2---------2---|
A--2----------------3------------------------------|
E--0----------------0------------------------------|
"When I got all worked up with these feelings"
Strummed  Quick Strum then mute
e--0-----------3-----2--0------------------|
B--0------------(0)--0--2---2------2-----2-|  Play this twice and then into
G--0--------0--0--(3)---0--0---0-----0-----|  the next part.
D--2--2-2-2-2-----------2-2------2-----2---|
A--2---2----2-----------3------------------|
E--0----(0)-0-----------0------------------|
"That we could be so mad we consider to not exist"
Strummed  Strummed  Strummed        Strummed
e--0---------0----------------------------|
B--3------3--3---------0----------------0-|   Play this twice and then into
G--2--2------2------2--2------2------2--2-|   the chorus.
D--0---(0)---0--0------4--4------4------4-|
A--0---------0---(0)---5----5------5----5-|
E--2---------2----------------------------|
"The goodbye waves in the drive way"
This entire sequence is plucked
e----------------------------------------------------|
B--3--3--3--3---3--3--3--3---3--3--3--3---3--3--3--3-|  Play that twice during
G--5--4--5--4---2--4--2--4---5--4--5--4---2--4--4--2-|  the chorus.
D--7--5--7--5---4--5--4--5---7--5--7--5---4--5--5--4-|
A----------------------------------------------------|
E----------------------------------------------------|

He plays the first part again and that's all i've got so far. If you find any
email me at tallyhoohoo_sabadu@hotmail.com.    

Added On December 5th, 2013

SHARE

Comments

blog comments powered by Disqus

VERSIONS

ADVERTISEMENT