Roo Panes Tabs

Open Road

1 versions

TAB

            this is the chords for the official video song (tuk tuk traveler)

Standard tuning  / Capo 5th fret

Intro

-------------10-13-10----10-10----10---------------------|e
-------10-13----------13-------13----13-10----------10---|B
-10-12-------------------------------------12-12-10----12|G
---------------------------------------------------------|D
---------------------------------------------------------|A
---------------------------------------------------------|E

-------------10-13-10----10-10----10------------------------|e
-------10-13----------13-------13----13-10----------10------|B
-10-12-------------------------------------12-12-10----12-10|G
------------------------------------------------------------|D
------------------------------------------------------------|A
------------------------------------------------------------|E

 C       F      C                  G
Open road, no one stopped you from trying,
C       F           C                  G
To lose your load, to find your silver lining.
C       F          C                  G
You left my side, cos mother let you run and hide,
C       F          C                  G
But even from afar I hear you crying..

(Chorus)
F                    C   Am                        G
let me out of this cage, before I swell up with rage,
F                    C            Am           G
Let me sing to old age before I'm done.
F                    C            Am             G
let me shout to the skies that I'm too young to die,
F                    C   Am                  G
and that fate will never stop me from trying.    

Added On December 16th, 2013

SHARE

Comments

blog comments powered by Disqus

ADVERTISEMENT