Roy Orbison Tabs

Pretty Woman

5 versions

TAB

            Pretty Woman Chords by Roy Orbison

I've never heard the original version of "Oh, Pretty Woman" (I know, it's a
serious lapse in my general education ;-)  I guess, however, that the cover
version done some years ago by Van Halen uses the same simple & powerfull
main riff, chords etc., right?  It goes something like this:

Intro:
               +--- let this note ring for 1 1/2 measure
               v________________________
               /                        \
    e -----------------|-----------------|
    B -----------------|-----------------|
    G -----------------|-----------------|  repeat both measures
    D ---------0-------|-----------------|
    A -2-2---2---------|-----------------|
    E -0-0-4-----------|-----------------|
       1 & 2 & 3 & 4 &   1 & 2 & 3 & 4 & 


and then over to the main riff which is just the following, usually repeated
4 times:

    e -----------------
    B -----------------
    G -----------------
    D ---------0-4-2-0-
    A -2-2---2---------
    E -0-0-4-----------
       1 & 2 & 3 & 4 &            A             F#m
    Pretty woman walking down the street,
           A
A
e |---|---|---|---|---|
B |---|-x-|---|---|---|
G |---|-x-|---|---|---|
D |---|-x-|---|---|---|
A |---|---|---|---|---|
E |---|---|---|---|---|
F#m
F#m
e |---|-x-|---|---|---|
B |---|-x-|---|---|---|
G |---|-x-|---|---|---|
D |---|---|---|-x-|---|
A |---|---|---|-x-|---|
E |---|-x-|---|---|---|
Pretty woman, the kind I'd like to meet. D
D
e |---|-x-|---|---|---|
B |---|---|-x-|---|---|
G |---|-x-|---|---|---|
D |---|---|---|---|---|
A |---|---|---|---|---|
E |---|---|---|---|---|
D
D
e |---|-x-|---|---|---|
B |---|---|-x-|---|---|
G |---|-x-|---|---|---|
D |---|---|---|---|---|
A |---|---|---|---|---|
E |---|---|---|---|---|
Pretty woman... E7
E7
e |---|---|---|---|---|
B |---|---|-x-|---|---|
G |-x-|---|---|---|---|
D |---|---|---|---|---|
A |---|-x-|---|---|---|
E |---|---|---|---|---|
E7
E7
e |---|---|---|---|---|
B |---|---|-x-|---|---|
G |-x-|---|---|---|---|
D |---|---|---|---|---|
A |---|-x-|---|---|---|
E |---|---|---|---|---|
I don't believe you -- it must be true. E7 E7 (repeat main riff 4 times) No one could look as good as you. Pretty woman, won't you pardon me. Pretty woman, I couldn't help but see. Pretty woman... Oh, you look lovely as you can be. Are you lonely just like me? Dm7
Dm7
e |-x-|---|---|---|---|
B |-x-|---|---|---|---|
G |---|-x-|---|---|---|
D |---|---|---|---|---|
A |---|---|---|---|---|
E |---|---|---|---|---|
G
G
e |---|---|-x-|---|---|
B |---|---|---|---|---|
G |---|---|---|---|---|
D |---|---|---|---|---|
A |---|-x-|---|---|---|
E |---|---|-x-|---|---|
Pretty woman, stop awhile. C
C
e |---|---|-x-|---|---|
B |-x-|---|---|---|---|
G |---|---|---|---|---|
D |---|-x-|---|---|---|
A |---|---|-x-|---|---|
E |---|---|---|---|---|
C/B
C/B
e |---|---|---|---|---|
B |---|---|---|---|-x-|
G |---|---|---|---|-x-|
D |---|---|---|---|-x-|
A |---|-x-|---|---|---|
E |---|---|---|---|---|
Am
Am
e |---|---|---|---|---|
B |-x-|---|---|---|---|
G |---|-x-|---|---|---|
D |---|-x-|---|---|---|
A |---|---|---|---|---|
E |---|---|---|---|---|
Am
Am
e |---|---|---|---|---|
B |-x-|---|---|---|---|
G |---|-x-|---|---|---|
D |---|-x-|---|---|---|
A |---|---|---|---|---|
E |---|---|---|---|---|
Pretty woman, talk awhile. Dm7
Dm7
e |-x-|---|---|---|---|
B |-x-|---|---|---|---|
G |---|-x-|---|---|---|
D |---|---|---|---|---|
A |---|---|---|---|---|
E |---|---|---|---|---|
G
G
e |---|---|-x-|---|---|
B |---|---|---|---|---|
G |---|---|---|---|---|
D |---|---|---|---|---|
A |---|-x-|---|---|---|
E |---|---|-x-|---|---|
C
C
e |---|---|-x-|---|---|
B |-x-|---|---|---|---|
G |---|---|---|---|---|
D |---|-x-|---|---|---|
A |---|---|-x-|---|---|
E |---|---|---|---|---|
C
C
e |---|---|-x-|---|---|
B |-x-|---|---|---|---|
G |---|---|---|---|---|
D |---|-x-|---|---|---|
A |---|---|-x-|---|---|
E |---|---|---|---|---|
Pretty woman, give your smile to me. Dm7
Dm7
e |-x-|---|---|---|---|
B |-x-|---|---|---|---|
G |---|-x-|---|---|---|
D |---|---|---|---|---|
A |---|---|---|---|---|
E |---|---|---|---|---|
G
G
e |---|---|-x-|---|---|
B |---|---|---|---|---|
G |---|---|---|---|---|
D |---|---|---|---|---|
A |---|-x-|---|---|---|
E |---|---|-x-|---|---|
Pretty woman, yeah, yeah, yeah, C
C
e |---|---|-x-|---|---|
B |-x-|---|---|---|---|
G |---|---|---|---|---|
D |---|-x-|---|---|---|
A |---|---|-x-|---|---|
E |---|---|---|---|---|
C/B
C/B
e |---|---|---|---|---|
B |---|---|---|---|-x-|
G |---|---|---|---|-x-|
D |---|---|---|---|-x-|
A |---|-x-|---|---|---|
E |---|---|---|---|---|
Am
Am
e |---|---|---|---|---|
B |-x-|---|---|---|---|
G |---|-x-|---|---|---|
D |---|-x-|---|---|---|
A |---|---|---|---|---|
E |---|---|---|---|---|
Am
Am
e |---|---|---|---|---|
B |-x-|---|---|---|---|
G |---|-x-|---|---|---|
D |---|-x-|---|---|---|
A |---|---|---|---|---|
E |---|---|---|---|---|
Pretty woman, look my way. Dm7
Dm7
e |-x-|---|---|---|---|
B |-x-|---|---|---|---|
G |---|-x-|---|---|---|
D |---|---|---|---|---|
A |---|---|---|---|---|
E |---|---|---|---|---|
G
G
e |---|---|-x-|---|---|
B |---|---|---|---|---|
G |---|---|---|---|---|
D |---|---|---|---|---|
A |---|-x-|---|---|---|
E |---|---|-x-|---|---|
C
C
e |---|---|-x-|---|---|
B |-x-|---|---|---|---|
G |---|---|---|---|---|
D |---|-x-|---|---|---|
A |---|---|-x-|---|---|
E |---|---|---|---|---|
A
A
e |---|---|---|---|---|
B |---|-x-|---|---|---|
G |---|-x-|---|---|---|
D |---|-x-|---|---|---|
A |---|---|---|---|---|
E |---|---|---|---|---|
Pretty woman, say you'll stay with me, F#m D E7 (repeat main riff 4 times) 'Cause I need you, need you tonight. Pretty woman, don't walk on by. Pretty woman, don't make me cry. Pretty woman... Don't walk away, hey. Okay. If that's the way it must be, okay. I guess I'll go on home, it's late. There'll be tomorrow night, but wait What do I see? She's walking back to me. Oh, pretty woman. Disclaimer: I haven't heard the record for some time. I'm pretty sure E.v.H. adds various fills (harmonics, dives, trills etc.) from time to time. Anyway, you should have gotten the main idea -- now go and add your own original stuff ;-) Enjoy, Kim _____ Kim H|glund, shotokan@diku.dk, CS Dept. at U of Copenhagen, Denmark "I've got plenty of common sense. I just choose to ignore it." -- Calvin

Added On December 5th, 2013

SHARE

Comments

blog comments powered by Disqus

VERSIONS

ADVERTISEMENT