Sabaton Tabs

Metal Machine

2 versions

TAB

            e|----------------------------------------------------------|
B|----------------------------------------------------------|
G|----------------------------------------------------------|
D|----------------------------------------------------------|
A|-2-2-5-2-4-2-0-2*------2-5-2-4-2-0------------------------|
E|----------------------------------------------------------|

|----------------------------------------------------------|
|----------------------------------------------------------|
|---------------------------------7-6----------------------|
|------------------5---5---5------7-6----------------------|
|-2-2-5-2-4-2-0----5-5-----5------5-4----------------------|
|------------------3-------3-------------------------------|

   (Riding on this crazy train I'm going paranoid)
|----------------------------------------------------------|
|----------------------------------------------------------|
|--4~-------------------------7~---------------------------|
|--4~--------------5~---------7~----------7~---------------|
|--2~--------------5~---------5~----------7~---------------|
|------------------3~---------------------5~---------------|

It's All That I've Figured Out So Far.
This Is 100% Right But It's Not Finished    

Added On December 16th, 2013

SHARE

Comments

blog comments powered by Disqus

VERSIONS

ADVERTISEMENT