Samir Viktor Tabs

Success

1 versions

TAB

            -------------------------------------------------------------------------------
                             SUCCESS - Samir & Viktor
-------------------------------------------------------------------------------
Tabbed by: Jonas
E-mail: jonasmalm96@gmail.com

Tuning: Standard

Versen ser ut så här: 
Varje stroke sitter på "backbeat", alltså på 2 och 4 om du räknar taktslag.

     F            C            G            Am
e|----------------------------------------------------------------------------|
B|----------------------------------------------------------------------------|
G|----------------5--5--5--5--------------------------------------------------|
D|---3--3--3--3---5--5--5--5---5--5--5--5---7--7--7--7------------------------|
A|---3--3--3--3---3--3--3--3---5--5--5--5---7--7--7--7------------------------|
E|---1--1--1--1----------------3--3--3--3---5--5--5--5------------------------|

Vid "Alla ifrån öst och väst..." blir kompet på Am lite annorlunda, sedan går det tillbaka till det vanliga:

     F            C            G            Am
e|----------------------------------------------------------------------------|
B|----------------------------------------------------------------------------|
G|----------------5--5--5--5--------------------------------------------------|
D|---3--3--3--3---5--5--5--5---5--5--5--5---7--7--x-7-7--7--------------------|
A|---3--3--3--3---3--3--3--3---5--5--5--5---7--7--x-7-7--7--------------------|
E|---1--1--1--1----------------3--3--3--3---5--5--x-5-5--5--------------------|

Annars är det exakt så versen ser ut, det är inte en speciellt avancerad låt ;)

I låten spelar en synt Pre-Chorus så här:
Dock fungerar det även att fortsätta på samma ackord som i versen.

   D         E      F         G        A            G        A           G
e|------------------------------------------------------------------------------------|
B|------------------------------------------------------------------------------------|
G|-7--7--7---9--9---10-10-10--12--12---14--14--14---12--12---14--14--14---12--12------|
D|-7--7--7---9--9---10-10-10--12--12---14--14--14---12--12---14--14--14---12--12------|
A|-5--5--5---7--7---8--8--8---10--10---12--12--12---10--10---12--12--12---10--10------|
E|------------------------------------------------------------------------------------|

Refräng: A (577XXX)


Vers:

F                    C
Nu är det dags igen, Ladda upp för sommaren

G           Am
Oj oj oj oj oj oj oj

F                          C
Allihop från öst och väst, Vi gör sverige allra bäst

G           Am
Oj oj oj oj oj oj oj

F                        C
Juni kom vi lämnar maj, ?This is fucking paradise?

G           Am
Oj oj oj oj oj oj oj

F                    C
Alla brudar alla män festa in i gryningen

G           Am
Oj oj oj oj oj oj oj


                    F                     C
IKväll blir det success!, Så gör dig redo

                    G                     Am
IKväll blir det success!, Så gör dig redo


                    F                     C
IKväll blir det success!, Så gör dig redo

                    G                     Am
IKväll blir det success!, Så gör dig redo    

Added On June 21st, 2014

SHARE

Comments

blog comments powered by Disqus

ADVERTISEMENT