Satyricon Tabs

That Darkness Shall Be Eternal

1 versions

TAB

            album - now,diabolicle
song - that darkness shall be eternal
band - satyricon
tuning - Eb (Eb,Bb,Gb,Db,Ab,Eb,)

* - palm mute
^ - bend
~ - let ring
h - hammer on

 i was asked to tab this song it sounds pretty spot on. i use gtr pro
 to tab my songs so most of them are pretty accurate.if theres any black
 metal tabs u want tabbed just ask.plaz rate.

 for the intro you play the top riff once and end 1.do that x5.the 6th
 time play the top riff then end 2.


  intro (riff1)
  gtr 1            gtr 1     gtr 2
e-------------x1]-----2---x3]----------------------------------------x1]
b---------------]---3--3----]------------------------------------------]
g---------------]-----------]--4^-4^-4^-4h5-4^-4^-4^-4h5-4h5-4^-4^-4^--] x6
d---------------]-----------]------------------------------------------]
a--2^-2^-2^-2^--]--2--------]------------------------------------------]
e---------------]-----------]------------------------------------------]


  gtr1 & 2 (end 1)     (end 2)
(play this end x5)   play this end 6th time  
e-------------------]-------------------]
b-------------------]-------------------]
g-------------------]-------------------]
d-------------------]-------------------]
a-------------------]-------------------]
e--2-0-0-3-2-0-0-0--]--2-0-0-3-3-0-0-3--]


  riff 2                     fill
e-----------------------x5]-----------]
b-------------------------]-----------]
g-------------------------]-----------]
d--------------------333--]-----------]
a--2-2-2-6-6-5-2-2-2-111--]--333-333--]
e--0-0-0-4-4-3-0-0-0------]--111-111--]
                             *** ***
  
 riff 3
e-------------------]-----------]
b-------------------]-----------]
g-------------------]-----------]
d-------------------]-----------]
a--7-7-6-6-2-5-4-3--]--333-333--] x3
e--5-5-4-4-0-3-2-1--]--111-111--]
                       *** ***
  4th time
e-------------------]
b-------------------]
g-------------------]
d-------------------]
a--7-7-6-6-2-5-4-3--]
e--5-5-4-4-0-3-2-1--]


play..

riff 2
riff 3 

 interlude x2

e---------------------------x4]-------------------x4]
b-----------------------------]--444-666------------]
g--4----4-----4---------------]--xxx-xxx--44444444--]
d--4----3------4--2-222222----]--111-333--xxxxxxxx--]
a--2-22-2-22----3-3-111111----]-----------22222222--] (random bends on 2nd)
e-----------------------------]---------------------] (fret.)


interlude ends
e-------]-----------]
b-------]-----------]
g--4-4--]-----------]
d--4-4--]-----------]
a--2-2--]--333-333--]
e-------]--111-111--]
           *** ***


play..
 
riff 3
riff 2
intro riff


 end riff

e-------------------]
b-------------------]
g-------------------]
d-------------------]
a--4-444-4-5-2~~~~--]
e--2-222-2-3-0~~~~--]

end.


 plz rate im tabbing 'to the mountains' as well and will post it later.

 tabbed by - immortal_stone    

Added On December 16th, 2013

SHARE

Comments

blog comments powered by Disqus

ADVERTISEMENT