Say Anything Tabs

Im A Transylvanian

1 versions

TAB

            Tuning: Standard (EADGBe)


Intro:
e|------------------------------------0----------|
B|------------------------------------x----------|
G|------------------------------------9----------|
D|---9/11---11--11--11---9--9---6-----6----------| X3
A|---7------11--11--11---9--9---7-----7----------|
E|---5-------0--------------------0--------------|


e|-----------------------------------|
B|------------------------4-5--------|
G|------------------------4-4--------|
D|-------2h4-------4-----------------|
A|--2h4-------4h6--------------------|
E|---------------------5-------------|



e|-------------------------------|
B|-------------------------------|
G|-------------------------------|
D|---9/11---11--11--11---9-------|
A|---7------11--11--11---7-------|
E|---5-------0-----------0-------|
 "Bent over the Grand Piano"

e|---------------------------------|  
B|---------------------------------|  
G|--------------------------9------| 
D|---9/11---11--11--11/9----9------|  
A|---7------11--11--11------x------|  
E|---5-------0--------------9------|  
 "Feel my eyes slide over you"

e|------------------------------------------------|
B|------------------------------------------------|
G|------------------------------------------------|
D|---9/11---11--11--11---9--9---6-----------------|
A|---7------11--11--11---9--9---7-----------------|
E|---5-------0------------------------------------|
 "Legs that curve the same a hers"


e|-----------------------------------|
B|-----------------------------------|
G|------------------------6-4--------|
D|-------2h4-------4-----------------|
A|--2h4-------4h6--------------------|
E|---------------------5-Let Ring----|
 "Could run as Quickly too"



e|----------------------|
B|----------------------|
G|----------------------|
A|---6----9----6-----9--|
D|---x----9----x-----9--| x4
A|---7----7----7-----x--|
E|---5---------5-----9--|
 "My lazy tongue lies low and ready"

e|--------------------------------|
B|--------------------------------|
G|--------------------------------|
D|-------2h4-------4--------------| X2
A|--2h4-------4h6-----------------|
E|---------------------5----------|
 "But you've already heard"


Chorus:
e|-------------------------------------------------------|
B|-------------------------------------------------------|
G|---------------9-----9--------9--------------9--8--9---|
D|---9-----7-----9-----9--9-----7-----6--7-----9--9--9---|
A|---9-----7-----x-----7--9-----9-----7--7-----x--x--x---|
E|---7-----5-----9--------7-----------5--5-----9--9--9---|
 "The path into this heart........"

e|----------------------------------------------------------|
B|----------------------------------------------------------|
G|---------------9-----9--------9--------------9--------6---|
D|---9-----7-----9-----9--9-----7-----6--7-----7-----6--7---|
A|---9-----7-----x-----7--9-----9-----7--7-----9-----7--7---|
E|---7-----5-----9--------7-----------5--5-----------5--5---|
 "The Path into this heart........"


Bridge:
e|--------------------------------|
B|--------------------------------|
G|--------------------------------|
D|------9----9-----9----9/11\9----| X2
A|---------7----------7-----------|
E|---9----------5-----------------|
 "So Child don't go getting your hopes up"


e|---------------------|         e|-------|
B|---------------------|         B|-------|
G|---9---9-------9-----|         G|---9---|
D|---9---9---7---9-----| X4      D|---9---|
A|---x---7---7---7-----|         A|---x---|
E|---9-------5---------|         E|---9---|
 "Don't go Getting your hopes up"  "up."
           (oh)    

Added On December 16th, 2013

SHARE

Comments

blog comments powered by Disqus

ADVERTISEMENT