Seether Tabs

Blister

2 versions

TAB

            -------------------------------------------------------------------------------
			     Blister - Seether
-------------------------------------------------------------------------------
Tabbed by: Murat "Skyline" Doganer
Email: m.doganer@hotmail.co.uk

Tuning: Half-a-step down, but standard will also do.

Before we start, i had to listen to this song about 3 million times to tab it, but i 
cant get it 100% perfect.  but i thought hey its close enough and sounds pretty good to me. 
you have corrections (which you will) please email them to me so i can fix this tab. cheers

Intro: (Em, G, C)

e|------0--------2---------0-------------------------------------------------|
B|------0--------0---------1-0h1-1-3p1---------------------------------------|
G|------0-0-0----0-0-0-----0----------0---------x2---------------------------|
D|-----------------------2---------------------------------------------------|
A|----2----2---2----2---3----------------------------------------------------|
E|--0---------3--------------------------------------------------------------|

Verse: (Em, G, C)

e|------0--------2---------0-------------------------------------------------|
B|------0--------0---------1-0h1-1-3p1---------------------------------------|
G|------0-0-0----0-0-0-----0----------0--------x2----------------------------|
D|-----------------------2---------------------------------------------------|
A|----2----2---2----2---3----------------------------------------------------|
E|--0---------3--------------------------------------------------------------|

Chorus: (Am, Em, Am, Em, Am, Em, C)

Once you figure out the strumming pattern its easy.

Solo: Sorry i have nooo clue here, i think you just play the chorus over (works for me)

Verse 2: (Em, G, C)

e|------0--------2---------0-------------------------------------------------|
B|------0--------0---------1-0h1-1-3p1---------------------------------------|
G|------0-0-0----0-0-0-----0----------0--------x2----------------------------|
D|-----------------------2---------------------------------------------------|
A|----2----2---2----2---3----------------------------------------------------|
E|--0---------3--------------------------------------------------------------|

Chorus: (Am, Em, Am, Em, Am, Em, C)

Another solo here.

Verse 3: (Em, G, C)


e|------0--------2---------0-------------------------------------------------|
B|------0--------0---------1-0h1-1-3p1---------------------------------------|
G|------0-0-0----0-0-0-----0----------0---------x2---------------------------|
D|-----------------------2---------------------------------------------------|
A|----2----2---2----2---3----------------------------------------------------|
E|--0---------3--------------------------------------------------------------|

Chorus: (Am, Em, Am, Em, Am, Em, C)

Outro: (Em, G, C, Em)

e|------0--------2---------0-------------------------------------------------|
B|------0--------0---------1-0h1-1-3p1---------------------------------------|
G|------0-0-0----0-0-0-----0----------0---x2----then-------------------------|
D|-----------------------2----------------------------2----------------------|
A|----2----2---2----2---3-----------------------------2----------------------|
E|--0---------3---------------------------------------0----------------------|

In the outro make sure you play each section considerably slower than normal.


Well its not perfect but its getting there!


| /  slide up
| \  slide down
| h  hammer-on
| p  pull-off
| ~  vibrato
| +  harmonic
| x  Mute note
===============================================================================    

Added On December 16th, 2013

SHARE

Comments

blog comments powered by Disqus

VERSIONS

ADVERTISEMENT