Seether Tabs

Rise Above This

2 versions

TAB

            Band:  Seether
Song:  Rise Above This
Album: Finding Beauty in Negative Spaces
Tuning:  Guitar 1:Drop Db, Guitar 2:Drop Db, Acoustic (3):1/2 step down.

Intro
Guitar 1: (Bottom strings can be played for texture if desired)

|-00000000-00000000-xxxxxxxx-xxxxxxxx-|
|-33333333-33333333-77777777-77777777-|
|-22222222-22222222-77777777-77777777-|
|-00000000-00000000-77777777-77777777-|
|-00000000-00000000-55555555-55555555-|
|-00000000-00000000-55555555-55555555-|

Intro
Guitar 2:
Pt.1
|--------------------------------------|
|--------------------------------------|
|-11-11-11-11-11-11-11-11-9-9-9-7-7/14-|
|-xx-xx-xx-xx-xx-xx-xx-xx-x-x-x-x-x/xx-|
|-09-09-09-09-09-09-09-09-7-7-7-5-5/12-|
|--------------------------------------| X2
Pt.2
|-----------------------------------------|
|-----------------------------------------|
|-12-12-12-12-12-12-12-12-11-11-11-9-9/14-|
|-xx-xx-xx-xx-xx-xx-xx-xx-xx-xx-xx-x-x/xx-|
|-10-10-10-10-10-10-10-10-09-09-09-7-7/12-|
|-----------------------------------------| X2

Verse:
Guitar 2: (noodle with this riff)

|--------------------------------------------------|
|---3-3--3-3----3-3--3-3--3-3---0-0--0-0--0-0--0-0-|
|----2-2--2-2--2-2--2-2--2-2---3-3--3-3--3-3--3-3--|
|--------------------------------------------------|
|-0-----0-----0----0----------5----5----5----5-----|
|-0-----0-----0----0----------5----5----5----5-----|

Acoustic(3) Play Chords: Dsus2 & G

|-0-| |-0-|
|-3-| |-3-|
|-2-| |-0-|
|-0-| |-0-|
|-0-| |-5-|
|-0-| |-5-|

Chorus:

Guitar 1: (Bottom strings can be played for texture if desired)

|-00000000-00000000-xxxxxxxx-xxxxxxxx-|
|-33333333-33333333-77777777-77777777-|
|-22222222-22222222-77777777-77777777-|
|-00000000-00000000-77777777-77777777-|
|-00000000-00000000-55555555-55555555-|
|-00000000-00000000-55555555-55555555-|

Chorus
Guitar 2:
Pt.1
|--------------------------------------|
|--------------------------------------|
|-11-11-11-11-11-11-11-11-9-9-9-7-7/14-|
|-xx-xx-xx-xx-xx-xx-xx-xx-x-x-x-x-x/xx-|
|-09-09-09-09-09-09-09-09-7-7-7-5-5/12-|
|--------------------------------------| X2
Pt.2
|-----------------------------------------|
|-----------------------------------------|
|-12-12-12-12-12-12-12-12-11-11-11-9-9/14-|
|-xx-xx-xx-xx-xx-xx-xx-xx-xx-xx-xx-x-x/xx-|
|-10-10-10-10-10-10-10-10-09-09-09-7-7/12-|
|-----------------------------------------| X2

Verse 2:  Same as verse 1
Chorus 2:  Same as Chorus 1

Lead 1: (1:09)
Pt. 1
|--------------------------------------|
|--------------------------------------|
|-14---------------12-12h14------------|
|---14-14h16-14-12---------14h16-14-12-|
|--------------------------------------|
|--------------------------------------|
Pt.2 (1:16)
|-17b19b17-14b15b14-------17b19b17-14b15b14-------|
|-------------------17-15-------------------17-15-|
|-------------------------------------------------|
|-------------------------------------------------|
|-------------------------------------------------|
|-------------------------------------------------|

Lead 2: (1:58)
Pt.1
|---------------------------------------------|
|---------------------------------------------|
|-14----------------14-14h16------------------|
|---14-14h16-14-12----------14h16-14h16-14-12-|
|---------------------------------------------|
|---------------------------------------------|
Pt.2 (2:05)
|-17b19b17-14b15b14--------17b19b17-14b15b14--------|
|-------------------17-15-------------------17-15---|
|------------------------14----------------------14-|
|---------------------------------------------------|
|---------------------------------------------------|
|---------------------------------------------------|

Bridge (I have no clue... suggestions?)
Guitar 2:

|----------------------------------------------|
|----------------------------------------------|
|----------------------------------------------|
|---44--999-5-4--00-4-----999-7-5------999-7-5-|
|-0000000000000000000-55555555555-5555---------|
|-0000000000000000000-55555555555-5555---------|

Chorus 3 (Same as all others)

Ending:

|--------------------------------------|
|--------------------------------------|
|-11-11-11-11-11-11-11-11-9-9-9-7-7/14-|
|-xx-xx-xx-xx-xx-xx-xx-xx-x-x-x-x-x/xx-|
|-09-09-09-09-09-09-09-09-7-7-7-5-5/12-|
|--------------------------------------| X4

Please make corrections!  TIA    

Added On December 16th, 2013

SHARE

Comments

blog comments powered by Disqus

VERSIONS

ADVERTISEMENT