Serj Tankian Tabs

Sky Is Over

3 versions

TAB

            -------------------------------------------------------------------------------
			     Sky is Over - Serj Tankian
-------------------------------------------------------------------------------

Tabbed By : Sevan K.
e-mail: masterdebassist@yahoo.com

Tuning:DADG

Wait a couple measures...counting is provided under each line of tablature

G|---------------------------------------------------------------------------|
D|---------------------------------------------------------------------------|
A|--1--3-----------3-----------------------------------1---------1-3---------|
D|-----------------------------3-----------6-----3---------------------------|
    4  1  2  3  4  1  2  3  4  1  2  3  4  1  2  3  4  1  2  3  4  1  2  3  4
G|---------------------------------------------------------------------------|
D|---------------------------------------------------------------------------|
A|-----1---------------------------------------------------------------------|
D|----------------1-1-1-1-0-0-0-0-5-5-5-5-5-5-5-5-1-1-1-1-0-0-0-0------------|
       1  2  3  4 1   2   3   4   1   2   3   4
G|---------------------------------------------------------------------------|
D|---------------------------------------------------------------------------|
A|---------------------------------------------------------------------------|
D|----5-5-5-5-5-5-5-5-1-1-1-1-0-0-0-0----------------------------------------|x3
      1   2   3   4   1   2   3   4
G|---------------------------------------------------------------------------|
D|-------------------------------5---3-3----3-5-3-------3--------------------|
A|-3-3-3----3--3---3-3-3----3--6--------------------6-6---6-5-5-5-5----------|
D|---------------------------------------------------------------------------|x2
   1   2   3   4   1   2   3   4    1   2   3   4   1   2   3   4
G|---------------------------------------------------------------------------|
D|---------------------------------------------------------------------------|
A|-1-1-1-1-1-1-1-1-3-3-3-3-3-3-3-3-1-1-1-1-1-1-1-1---------------------------|
D|-------------------------------------------------1-1-1-1-0-0-0-0-----------|
   1   2   3   4   1   2   3   4   1   2   3   4   1   2   3   4
G|---------------------------------------------------------------------------|
D|---------------------------------------------------------------------------|
A|-3-------3-------3------3------------------------3-------3-----------------|
D|---------------------------------3-------3---------------------------------|
   1   2   3   4   1   2   3   4   1   2   3   4   1   2   3   4

 this part I'm not so sure.....so just do this.... ( this is the lie la la la la part)
G|---------------------------------------------------------------------------|
D|---------------------------------3-3-3-3-3-3-3-3---------------------------|
A|-3-3-3-3-3-3-3-3-3-3-3-3-3-3-3-3-----------------3-3-3-3-3-3-3-3-----------|
D|---------------------------------------------------------------------------|
   1   2   3   4   1   2   3   4   1   2   3   4   1   2   3   4
G|---------------------------------------------------------------------------|
D|---------------------------------------------------------------------------|
A|-1-1-1-1-1-1-1-1-3-3-3-3-3-3-3-3-------------------------------------------|
D|---------------------------------------------------------------------------|x3
   1   2   3   4   1   2   3   4
G|---------------------------------------------------------------------------|
D|---------------------------------even-though-we----can't-afford------------|
A|-1-1-1-1-1-1-1-1-----------------------------------------------------------|
D|-----------------1-1-1-1-0-0-0-0-------------------------------------------|
   1   2   3   4   1   2   3   4   1    2      3     4
G|---------------------------------------------------------------------------|
D|---------------------------------------------------------------------------|
A|---------------------------------------------------------------------------|
D|-1-1-1-1-0-0-0-0-5-5-5-5-5-5-5-5-1-1-1-1-0-0-0-0---------------------------|
   1   2   3   4   1   2   3   4   1   2   3   4
G|---------------------------------------------------------------------------|
D|---------------------------------------------------------------------------|
A|---------------------------------------------------------------------------|
D|-5-5-5-5-5-5-5-5-1-1-1-1-0-0-0-0-------------------------------------------|X5
   1   2   3   4   1   2   3   4
G|---------------------------------------------------------------------------|
D|---------------------------------------------------------------------------|
A|---------------------------------------------------------------------------|
D|-5-5-5-5-5-5-5-5-1~--------------0~--------------1~--------------0~--------|
   1   2   3   4   1   2   3   4   1   2   3   4   1   2   3   4   1  2  3  4
| /  slide up
| \  slide down
| h  hammer-on
| p  pull-off
| ~  vibrato
| +  harmonic
| x  Mute note
===============================================================================    

Added On December 16th, 2013

SHARE

Comments

blog comments powered by Disqus

VERSIONS

ADVERTISEMENT