Sevendust Tabs

Beautiful

4 versions

TAB

            Beautiful Tab by Sevendust


------------------Sevendust-Beautiful--Animosity-----------------------------

tuned in Drop B--- B,F#,B,E,G#,C#----------
                         
this song's fairly simple, you just have to get the timing down..enjoy!
            Intro(using whammy pedal)

C#|--(7x)---------------------------------------|
G#|-13-15------8-10-------(7x)------------------|
E |-----------------------5-7-------------------|
B |--------0---------0--------------------------|
F#|---------------------------------------------|
B |---------------------------------------------|
      
     Main/Verse riff...play B5 in sync with bass drum
C#|-----------------------------------------------------|
G#|-----------------------------------------------------|
E |-----------------------------------------------------|
B |-0-0-0---0-0-0--0-0-0-----0h3-0-0-0-0-0-0------------|
F#|-0-0-0---0-0-0--0-0-0--3h5----0-0-0-0-0-0----3h5 3h5-|
B |-0-0-0---0-0-0--0-0-0-0-------0-0-0-0-0-0--0---------|
                   
                
                    Chorus
C#|------------------------------------------------|
G#|------------------------------------------------|
E |-7---7----5--5----3------------------7--5---3---|
B |-5---5----3--3----1----0---7---8-----5--3---1---|
F#|-5---5----3--3----1----0---7---8-----5--3---1---|
B |-5---5----3--3----1----0---7---8-----5--3---1---|    

Added On December 12th, 2013

SHARE

Comments

blog comments powered by Disqus

VERSIONS

ADVERTISEMENT