Silverstein Tabs

Bleeds No More

4 versions

TAB

            Bleeds No More Tab by Silverstein


Artist: Silverstein
Album: When Broken Is Easily Fixed
Song: Bleeds No More
Tuning: CGCFAD (Drop C)

Hey guys this is my first posted tab at UG so enjoy and give me some feedback.
My version of the song is in CGCFAD tuning because for those who hate tuning
back up or switching to another pre-tuned guitar, in this tuning the scales
work out perfectly and personally I think Silverstein themselves play it in
Drop C. Now it's time to jam... 

Intro/Chorus:
"MY HEART BLEEDS NO MORE!"...   
C|---------------------------|             On 4th Time  C|-----|
G|-----7-8-------------------|             Finish Riff  G|-----|
C|---------------------------|Repeat X4    With This    c|-----|
F|--9------7--5----5-4-0-4---|             Chord        F|--2--|
A|--7------5--3----3-2-0-2---|                          A|--2--|
D|---------------------------|                          D|--2--| 

Verse: 
"Powerless I stand..."
C|---------------------------------------------------------------|
G|---------------------------------------------------------------|
C|---------------------------------------------------------------|
F|---------------------------------------------------------------|
A|--2-----------------------10-----------------------------------|
D|--2-2-2-2-2-2-2-2-2-2-2-2-10-10-10-10-10-10-10-10-10-10-10-10--|

C|---------------------------------------------------------------|
G|---------------------------------------------------------------|
C|---------------------------------------------------------------|
F|---------------------------------------------------------------|
A|--5-----------------------4---------4--------------------------|
D|--5-5-5-5-5-5-5-5-5-5-5-5-4-4-4-4-4-4-4-4-4-4-4-4--------------|

C|---------------------------------------------------------------|
G|---------------------------------------------------------------|
C|---------------------------------------------------------------|
F|---------------------------------------------------------------|
A|--2-----------------------10-----------------------------------|
D|--2-2-2-2-2-2-2-2-2-2-2-2-10-10-10-10-10-10-10-10-10-10-10-10--|

C|---------------------------------------------------------------|
G|---------------------------------------------------------------|
C|---------------------------------------------------------------|
F|--12-12-12-12-12-12-12-12-12-12-12-12--------------------------|
A|--10-10-10-10-10-10-10-10-10-10-10-10-9-9-9-9-9-9-9-9-9-9-9-9--|
D|--------------------------------------9-9-9-9-9-9-9-9-9-9-9-9--|

Chorus:
"MY HEART BLEEDS NO MORE!"... 
C|---------------------------|          
G|-----7-8-------------------|             
C|---------------------------|Repeat X4       
F|--9------7--5----5-4-0-4---|         
A|--7------5--3----3-2-0-2---|          
D|---------------------------|             

Bridge Part I: 
"KILLING EVERRYTHING OFF INSIDE!"...
C|---------------------------------------------------| ]
G|---------------------------------------------------| ]
C|--14-14-14-14-14-14-14-14-12-12-12-12-12-12-12-12--| ]
F|--12-12-12-12-12-12-12-12-10-10-10-10-10-10-10-10--| ]
A|---------------------------------------------------| ]
D|---------------------------------------------------| ]
                                                       > Repeat This Section
C|---------------------------------------------------| ]        X3
G|---------------------------------------------------| ]
C|--11-11-11-11-11-11-11-11-12-12-12-12-12-12-12-12--| ]     
F|---9--9--9--9--9--9--9--9-10-10-10-10-10-10-10-10--| ]
A|---------------------------------------------------| ]
D|---------------------------------------------------| ]

C|---------------------------------------------------|
G|---------------------------------------------------|
C|--14-14-14-14-14-14-14-14-12-12-12-12-12-12-12-12--|
F|--12-12-12-12-12-12-12-12-10-10-10-10-10-10-10-10--|
A|---------------------------------------------------|
D|---------------------------------------------------|

C|---------------------------|
G|---------------------------|
C|---------------------------|
F|---------------------------|
A|--9-9-9-9-9-9-9-9-9-9-9-9--|
D|--9-9-9-9-9-9-9-9-9-9-9-9--|

Chorus:
"MY HEART BLEEDS NO MORE!"...   
C|---------------------------|             On 4th Time  C|-----|
G|-----7-8-------------------|             Finish Riff  G|-----|
C|---------------------------|Repeat X4    With This    c|-----|
F|--9------7--5----5-4-0-4---|             Chord        F|--2--|
A|--7------5--3----3-2-0-2---|                          A|--2--|
D|---------------------------|                          D|--2--| 

Bridge Part II:
"I wanted to, convince myself there's nothing left to do..."
This is actually the violin part tabbed out:

C|-----------|
G|-----------|  Guitar I repeats
C|----0---3--|  this riff in the
F|--2---2----|  background about  
A|-----------|        X15
D|-----------|

Guitar II:
C|-----8--10--8--7-----------------|      
G|--10-------------10--8--7h8p7-5--|        
C|---------------------------------|   Do that only once    
F|---------------------------------|       
A|---------------------------------|     
D|---------------------------------|      

C|------------------------|       On third      C|---------------|   
G|--10--8--7-----7h8p7-5--|       time let      G|--10--8--7-----|
C|------------8-----------|  X2   the last ---> C|------------8--|
F|------------------------|       note ring     F|---------------|
A|------------------------|       (the 8 on C)  A|---------------|
D|------------------------|                     D|---------------|

Bridge Part I: 
"You're the worst thing that ever happened to me..."
C|---------------------------------------------------| ]
G|---------------------------------------------------| ]
C|--14-14-14-14-14-14-14-14-12-12-12-12-12-12-12-12--| ]
F|--12-12-12-12-12-12-12-12-10-10-10-10-10-10-10-10--| ]
A|---------------------------------------------------| ]
D|---------------------------------------------------| ]
                                                       > Repeat This Section
C|---------------------------------------------------| ]        X3
G|---------------------------------------------------| ]
C|--11-11-11-11-11-11-11-11-12-12-12-12-12-12-12-12--| ]     
F|---9--9--9--9--9--9--9--9-10-10-10-10-10-10-10-10--| ]
A|---------------------------------------------------| ]
D|---------------------------------------------------| ]

C|---------------------------------------------------|
G|---------------------------------------------------|
C|--14-14-14-14-14-14-14-14-12-12-12-12-12-12-12-12--|
F|--12-12-12-12-12-12-12-12-10-10-10-10-10-10-10-10--|
A|---------------------------------------------------|
D|---------------------------------------------------|

C|---------------------------|
G|---------------------------|
C|---------------------------|
F|---------------------------|
A|--9-9-9-9-9-9-9-9-9-9-9-9--|
D|--9-9-9-9-9-9-9-9-9-9-9-9--|

Intro/Chorus:
"MY HEART BLEEDS NO MORE!"...   
C|---------------------------|             
G|-----7-8-------------------|             
C|---------------------------|Repeat X2    
F|--9------7--5----5-4-0-4---|            
A|--7------5--3----3-2-0-2---|                       
D|---------------------------|       

The riff changes 2 notes on the top C string
C|-----6-7-------------------|                           C|-----|
G|---------------------------|                           G|-----|
C|---------------------------|Repeat X2    End the Song  C|-----|
F|--9------7--5----5-4-0-4---|             With This     F|--2--|
A|--7------5--3----3-2-0-2---|                           A|--2--|
D|---------------------------|                           D|--2--|    

Added On December 12th, 2013

SHARE

Comments

blog comments powered by Disqus

VERSIONS

ADVERTISEMENT