Silverstein Tabs

Giving Up

10 versions

TAB

            Giving Up Tab by Silverstein


Silverstein is an awesome band... http://www.silversteinmusic.com/ 
i didn't put the lead part..if anyone needs it..just ask or e-mail me jjpitcher@attbi.com


Intro- repeat a couple times
e |-------------------------------------------3---3-----------3---3---|
B |---------5---5------------5---5------------------------------------|
G |-----5-----5---5------5-----5---5------5-----5---5-----5-----5---5-|
D |---3---3------------3---3------------------------------------------|
A |-------------------------------------0---0-----------0---0---------|
D |-------------------------------------------------------------------|

Verse – strumming not shown
e |---------------------------------------------------------|
B |---------------------------------------------------------|
G |---10-------10-------------------------------------------|
D |---10---7---10---7-------3---5---7-----3---5---7---------|
A |----8---7----8---7-------3---5---7-----3---5---7---------|
D |--------7--------7-------3---5---7-----3---5---7---------|

Chorus
e |-------------------------------------|
B |-------------------------------------|
G |---10---5-------5---10---5-------5---|
D |---10---5---3---5---10---5---3---5---|
A |----8---3---3---3----8---3---3---3---|
D |------------3----------------3-------|

Repeat Verse
Repeat Chorus
Repeat Intro

Break
e |-----------------|
B |-----------------|
G |---10------------|
D |---10---7---5----|
A |----8---7---5----|
D |--------7---5----|

Repeat Chorus
End
e |-----------------|
B |-----------------|
G |---10------------|
D |---10---10---7---|
A |----8---10---7---|
D |--------10---7---|    

Added On December 12th, 2013

SHARE

Comments

blog comments powered by Disqus