Skillet Tabs

Falling Inside The Black

1 versions

TAB

            Falling Inside The Black Tab by Skillet


Skillet: Falling Inside The Black
Album: Comatose
2006 Atlantic Records
Drop B Tuning B-F#-B-E-G#-C#

h=hammer on
~=let it ring
palm mute=...etc
p=pull off

Intro
Gtr. 2
C#[----------------------------------13/11----]
G#[----16/15---------------16/15--------------]
E [-12--------12-14/15--12--------12----------]
B [-------------------------------------------]
F#[-------------------------------------------]
B [-------------------------------------------]

Then
Gtr. 2
C#[-------------------------------------------]
G#[----16/15---------------16/15--------------]
E [-12--------12-14/15--12--------15-14-12----]
B [-------------------------------------------]
F#[-------------------------------------------]
B [-------------------------------------------]

Gtr. 1
C#[---------------------------------------]
G#[---------------------------------------]
E [---------------------------------------]
B [-5-5-------5-5-------5-5-------5-x5----]
F#[---------------------------------------]
B [-----5-5h6-----5-5h6-----5-5h6---------]

Then
Gtr. 2
C#[----------------------------------13/11----]
G#[----16/15---------------16/15--------------]
E [-12--------12-14/15--12--------12----------]
B [-------------------------------------------]
F#[-------------------------------------------]
B [-------------------------------------------]

C#[-------------------------------------------]
G#[----16/15---------------16/15--------------]
E [-12--------12-14/15--12--------15-14-12----]
B [-------------------------------------------]
F#[-------------------------------------------]
B [-------------------------------------------]

Gtr. 1
C#[-----------------------------------------]
G#[-----------------------------------------]
E [-----------------------------------------]
B [-5-5-5-5h6-5-5-5-5h6-5-5-5-5h6-x5-5/3----]
F#[-----5-5h6-----5-5h6-----5-5h6-x5-5/3----]
B [-----5-5h6-----5-5h6-----5-5h6-x5-5/3----]

C#[-----------------------------------------]
G#[-----------------------------------------]
E [-----------------------------------------]
B [-5-5-5-5h6-5-5-5-5h6-5-5-5-5h6-x8-8/3----]
F#[-----5-5h6-----5-5h6-----5-5h6-x8-8/3----]
B [-----5-5h6-----5-5h6-----5-5h6-x8-8/3----]

Verse 1
Keyboard then..
C#[-------------]
G#[-------------]
E [-------------]
B [-3--3-3-5----]
F#[-3--3-3-5----]
B [-3--3-3-5----]

Then
C#[----------------------------------13/11----]
G#[----16/15---------------16/15--------------]
E [-12--------12-14/15--12--------12----------]
B [-------------------------------------------]
F#[-------------------------------------------]
B [-------------------------------------------]

C#[--------------------------------------]
G#[----16/15-----------------------------]
E [-12--------12-14/15-------------------]
B [--------------------------------------]
F#[--------------------------------------]
B [--------------------------------------]

Pre-Chorus
C#[--------------------------------------------------------------------------]
G#[--------------------------------------------------------------------------]
E [-8-8-8-8/8-8/8-10-10----10/10/10/10-8-8-8-8/8-8/8-7-7-7-8/8/8-8/8/8-7-7-7-]
B [-8-8-8-8/8-8/8-10-10----10/10/10/10-8-8-8-8/8-8/8-7-7-7-8/8/8-8/8/8-7-7-7-]
F#[-6-6-6-6/6-6/6--8--8-----8/-8/-8/-8-6-6-6-6/6-6/6-5-5-5-6/6/6-6/6/6-5-5-5-]
B [--------------------------------------------------------------------------]

C#[-----------------------]
G#[-----------------------]
E [-7/7/7-x~(5th fret)----]
B [-7/7/7-x~(5th fret)----]
F#[-5/5/5-x~(5th fret)----]
B [-----------------------]

Chorus
C#[----------------------------------------------------]
G#[----------------------------------------------------]
E [-8/8/8/8-8-8-7/7/7/7-7-7----------------------------]
B [-8/8/8/8-8-8-7/7/7/7-7-7-5/5/5/5-5-5-3/3/3/3-3-3----]
F#[-6/6/6/6-6-6-5/5/5/5-5-5-5/5/5/5-5-5-3/3/3/3-3-3----]x3
B [-------------------------5/5/5/5-5-5-3/3/3/3-3-3----]

C#[-------------------]
G#[-------------------]
E [-8----7------------]
B [-8----7----5--3----]
F#[-6----5----5--3----]
B [-----------5--3----]

C#[----------------------------]
G#[----------------------------]
E [-8/8/8/8-x8-7/7/7/7-x7-7----]
B [-8/8/8/8-x8-7/7/7/7-x7-7----]
F#[-6/6/6/6-x6-5/5/5/5-x5-5----]
B [----------------------------]

Verse 2
C#[---------------------]
G#[-15--------11--------]
E [---------------------]
B [---------------------]
F#[---------------------]x2
B [---------------------]
    ....................

Then
C#[-------------]
G#[-------------]
E [-------------]
B [-3--3-3-5----]
F#[-3--3-3-5----]
B [-3--3-3-5----]

Then
C#[----------------------------------13/11----]
G#[----16/15---------------16/15--------------]
E [-12--------12-14/15--12--------12----------]
B [-------------------------------------------]
F#[-------------------------------------------]
B [-------------------------------------------]

C#[--------------------------------------]
G#[----16/15-----------------------------]
E [-12--------12-14/15-------------------]
B [--------------------------------------]
F#[--------------------------------------]
B [--------------------------------------]

Pre-Chorus

Chorus 2
C#[----------------------------------------------------]
G#[----------------------------------------------------]
E [-8/8/8/8-8-8-7/7/7/7-7-7----------------------------]
B [-8/8/8/8-8-8-7/7/7/7-7-7-5/5/5/5-5-5-3/3/3/3-3-3----]
F#[-6/6/6/6-6-6-5/5/5/5-5-5-5/5/5/5-5-5-3/3/3/3-3-3----]x3
B [-------------------------5/5/5/5-5-5-3/3/3/3-3-3----]

C#[-------------------]
G#[-------------------]
E [-8----7------------]
B [-8----7----5--3----]
F#[-6----5----5--3----]
B [-----------5--3----]

C#[-------------------------------]
G#[-------------------------------]
E [-8/8/8/8-x8-7/7/7/7-x7--7-7-7--]
B [-8/8/8/8-x8-7/7/7/7-x7--7-7-7--]
F#[-6/6/6/6-x6-5/5/5/5-x5--5-5-5--]
B [-------------------------------]

Post-Chorus
C#[-------------------------------------------]
G#[-------------------------------------------]
E [-------------------------------------------]
B [-----5-5h6-----5-5h6-----5-5h6----5-5h6----]
F#[-----5-5h6-----5-5h6-----5-5h6----5-5h6----]
B [-----5-5h6-----5-5h6-----5-5h6----5-5h6----]

Bridge
Gtr. 2
C#[-------------------------------------------------------------------------]
G#[-------------------------------------------------------------------------]
E [-8----7--------------8----7--------------7-7-7-8/8/8-8/8/8-7-7-7--7~~----]
B [-8----7----5----3----8----7----5----3----7-7-7-8/8/8-8/8/8-7-7-7--7~~----]
F#[-6----5----5----3----6----5----5----3----5-5-5-6/6/6-6/6/6-5-5-5--5~~----]
B [-----------5----3--------------5----3------------------------------------]

Gtr. 1
C#[--------------------------------------------------------8---11-10-----]
G#[----11/11/10/10/11/11---11/11/10/10/11/11-8---10---11-----------------]
E [-8/8-----------------7/7-------------------7/7--7/7--7/7-7/7--7--7----]
B [----------------------------------------------------------------------]
F#[----------------------------------------------------------------------]
B [----------------------------------------------------------------------]

C#[-13-11-10h11p10-----------18~~17~~20~~18~~----14-14---------------------]
G#[---------------11h13/10~~-----------------15~~-----16/15-16p15/13h15----]
E [------------------------------------------------------------------------]
B [------------------------------------------------------------------------]
F#[------------------------------------------------------------------------]
B [------------------------------------------------------------------------]

C#[-17--18--20--23--22~~~~----]
G#[---------------------------]
E [---------------------------]
B [---------------------------]
F#[---------------------------]
B [---------------------------]

Then
Piano then...
C#[-----------------------------------------------------]
G#[-----------------------------------------------------]
E [---8/7---8/7-----------------------------------------]
B [-5-----7-----8h10/7/10/8/7/10/8/7/8/7/3-(huh huh)----]
F#[-----------------------------------------------------]
B [-----------------------------------------------------]

Chorus 3
C#[----------------------------------------------------]
G#[----------------------------------------------------]
E [-8/8/8/8-8-8-7/7/7/7-7-7----------------------------]
B [-8/8/8/8-8-8-7/7/7/7-7-7-5/5/5/5-5-5-3/3/3/3-3-3----]
F#[-6/6/6/6-6-6-5/5/5/5-5-5-5/5/5/5-5-5-3/3/3/3-3-3----]x3
B [-------------------------5/5/5/5-5-5-3/3/3/3-3-3----]

C#[---------------------]
G#[---------------------]
E [-8----7--------------]
B [-8----7----5----3----]
F#[-6----5----5----3----]x3
B [-----------5----3----]

Then
Gtr. 2
C#[-------------------]
G#[-------------------]
E [-8----7------------]
B [-8----7----5--3----]
F#[-6----5----5--3----]
B [-----------5--3----]

C#[----------------------------]
G#[----------------------------]
E [-8/8/8/8-x8-7/7/7/7-x7-7----]
B [-8/8/8/8-x8-7/7/7/7-x7-7----]
F#[-6/6/6/6-x6-5/5/5/5-x5-5----]
B [----------------------------]

Gtr. 1
C#[------------------------------------]
G#[------------9--10--12--14--15-14----]
E [------------x---x---x---x---x--x----]
B [------------6---7---9--11--12-11----]
F#[------------------------------------]
B [------------------------------------]    

Added On December 12th, 2013

SHARE

Comments

blog comments powered by Disqus

ADVERTISEMENT