Slayer Tabs

Reborn

3 versions

TAB

            Reborn                                      Key
Slayer                                  . = palm mute
Reign in Blood 1986                     p = pull-off
Tabbed By:Alex Salazar

Tuning:Half Step

Intro

eb---------------------------------------------|x4
Bb---------------------------------------------|
Gb---------------------------------------------|
Db---------------------------------------------|
Ab-2----9-8----4----4-5--2----9-8----4----5-8--|
Eb-0-00-7-6-00-2-00-2-3--0-00-7-6-00-2-00-3-6--|
     ..     ..   ..        ..     ..   ..

Riff 2

eb---------------------------|
Bb---------------------------|
Gb---------------------------|
Db------------------------3--|
Ab------------------------1--|
Eb-2222222233-22222222330----|
   .......... ...........

Verse

eb----------------------|x8
Bb----------------------|
Gb----------------------|
Db-2-2------------------|
Ab-2-2------------------|
Eb-0-0-0-0-4-0-3-0------|
       . . . . . .

Chorus

eb------------------------------------------------|x2
Bb------------------------------------------------|
Gb------------------------------------------------|
Db------------------------------------------------|
Ab----------------------5----------------------9--|
Eb-11111111555544444444-3-11111111555544444444-7--|
   ....................   ....................

Bridge

eb--------------------------|x2
Bb--------------------------|
Gb--------------------------|
Db-----------------------3--|
Ab------p-p---------p-p--1--|
Eb-22225-3-233-22225-3-2----|
   ..... . ... ..... . .

Solo Fill

Figure 1
eb--------------------------|x2
Bb--------------------------|
Gb--------------------------|
Db--------------------------|
Ab-66661010101099999999-7---|
Eb-44448-8-8-8-77777777-5---|
   ..... . . . ........

Figure 2
eb--------------------------|x4
Bb--------------------------|
Gb--------------------------|
Db--------------------------|
Ab------------------3-------|
Eb-0000111144443333-1-------|
   ................

Outro Riff

eb-------------|x16
Bb-------------|
Gb-------------|
Db-------------|
Ab----p-p------|
Eb-225-3-2-----|
   ..  . .

Order of Song
Intro
Riff 2 x4
Verse
Chorus
Riff 2 x2
Verse
Chorus
Bridge x2
Riff 2 x2
Solo Fill
Riff 2 x6
Chorus
Outro Riff
Solo Fill Figure 2 x5

Thats the song hope it helped    

Added On December 16th, 2013

SHARE

Comments

blog comments powered by Disqus

VERSIONS

ADVERTISEMENT