Social Code Tabs

Miss You

1 versions

TAB

            Miss You - Social Code


Awesome song, awesome band! This song was what got me
hooked onto their band. Hope I tabbed it out well enough!
I know its not exactly what Morgan plays cuz ive seen videos on
you tube, but i hope this is close enough! thanks and rate


1/2 step down Tuning 



Intro
eb:-------------------------------------:
Bb:-------------------------------------:
Gb:-------4-----4---4-----4-----4----4--:
Db:-------------------------------------:
Ab:--2222---2-2---2---------------------:
Eb:-------------------4-4---4-4----4----:
            * *   *   * *   * *    *

eb:---------------------------------------:
Bb:---------------------------------------:
Gb:------4-----4------------4------4---4--:
Db:---------------------------------------:
Ab:---------------------------------------:
Eb:--0-0---0-0---0-0-0-0-0-----0-0---0----:
     * *   * *   * * * * *     * *   *


Verse   3x
eb:-------------------------------------:
Bb:-------------------------------------:
Gb:-------4-----4---4-----4-----4----4--:
Db:-------------------------------------:
Ab:--2-2----2-2---2---------------------:
Eb:-------------------4-4---4-4----4----:
     * *    * *   *   * *   * *    *

eb:---------------------------------------:
Bb:---------------------------------------:
Gb:------4-----4------------4------4---4--:
Db:---------------------------------------:
Ab:---------------------------------------:
Eb:--0-0---0-0---0-0-0-0-0-----0-0---0----:
     * *   * *   * * * * *     * *   *

Pre Chorus
eb:------------------------------------:
Bb:------------------------------------:
Gb:--44444444--------------------------:
Db:--44444444666666662222222222222222--:
Ab:--22222222666666662222222222222222--:
Eb:----------444444440000000000000000--:


Chorus 2x   Note- Not strumming pattern. Too hard to tab but u get the idea
eb:--------------------------------------------------------------------:
Bb:--------------------------------------------------------------------:
Gb:--4444444444444444--------------------------------------------------:
Db:--4444444444444444444444444444444466666666666666662222222222222222--:
Ab:--2222222222222222444444444444444466666666666666662222222222222222--:
Eb:------------------222222222222222244444444444444440000000000000000--:



2nd Verse   4x last time threw play full e chords
eb:-------------------------------:
Bb:-------------------------------:
Gb:--444444-----------------------:
Db:--4444446-6666662222222-22222--:
Ab:--2222226-6666662222222-22222--:
Eb:--------4-4444440000000-00000--:
        ***    ****   ***    ***


Chorus 2x

Bridge
eb:--------------------:
Bb:--------------------:
Gb:----------66668888--:
Db:--2222222266668888--:
Ab:--2222222244446666--:
Eb:--00000000----------:   2x
     ********

eb:---------------------------------------:
Bb:---------------------------------------:
Gb:------------------444~666~888~111111~--:
Db:--2222222222222222444~666~888~111111~--:
Ab:--2222222222222222222~444~666~9-9-9~---:
Eb:--0000000000000000---------------------:
     ****************

Repeat first part

Then

eb:------------------------------------------:
Bb:------------------------------------------:
Gb:--444~444~666~666~888~888~111111~111111~--:
Db:--444~444~666~666~888~888~111111~111111~--:
Ab:--222~222~444~444~666~666~9-9-9~-9-9-9~---:
Eb:------------------------------------------:



Breakdown
eb:--------------------------------------------------------------------:
Bb:--------------------------------------------------------------------:
Gb:----4---4---4---4---4---4---4---4---4---4---4---4-------------------:
Db:--------------------------------------------------2222222222222222--:
Ab:--2---2---2---2---4---4---4---4-------------------2222222200000000--:
Eb:----------------------------------4---4---4---4---0000000000000000--:


Chorus 4x


End note
eb:-----------------------:
Bb:-----------------------:
Gb:--4~~~~/(6)/(8)\(4)~~--:
Db:--4~~~~/(6)/(8)\(4)~~--:
Ab:--2~~~~/(4)/(6)\(2)~~--:
Eb:-----------------------:


* = Palm Mute
(#) = Dont hit note, just slide to it
/ = upward slide
\ = downward slide



CHEERS    

Added On December 16th, 2013

SHARE

Comments

blog comments powered by Disqus

ADVERTISEMENT