Sonic Youth Tabs

Poison Arrow

1 versions

TAB

            Sonic Youth/The Eternal/Poison Arrow
D D A F# A D
6th string is down 1 step
5th string is down 3 1/2 steps
4th string is down 2 1/2 steps
3rd string is down 1/2 step
2nd string is down 1 step
1st string is down 1 step

Intro:          x4
------15-18-18-----     ----------------------------|
------15-18-18-----     ----------------------------|
-------------------     ----------------------------|
-00000---------553-     -0x0x0x0x0-3333333333333333-|
-00000---------553-     -0x0x0x0x0-3333333333333333-|
-00000---------553-     -0x0x0x0x0-3333333333333333-|

Verse:                         x4
----------------------------------|
----------------------------------|
----------------------------------|
-55555555-10-10-10-10-10-10-10-10-|
-55555555-10-10-10-10-10-10-10-10-|
-55555555-10-10-10-10-10-10-10-10-|

Bridge:
------------7--|
---------777---|
-------------7-|
-77777777------|
-77777777------|
-77777777------|

Chorus:
-10-10-10-9-7-9-10-|
-10-10-10-9-7-9-10-|
-------------------|
-------------------|
-------------------|
-------------------|

Outro: (even though it isn't part of the song, I prefer
to make noise here, or you can do this boring note)
-------------|
-------------|
-------------|
-0x0x0x0x0x0-|
-0x0x0x0x0x0-|
-0x0x0x0x0x0-| over and over...

Order:
Intro
Verse
Bridge x2
Chorus x2
Intro
Verse
Bridge x4
Chorus x4
Intro
Verse
Bridge x4
Chorus x4
Intro
Outro    

Added On December 16th, 2013

SHARE

Comments

blog comments powered by Disqus

ADVERTISEMENT