Spiritualized Tabs

Goodnight Goodnight

1 versions

TAB

            ----------------------------------------------------------------------------
			     Goodnight Goodnight - Spiritualized
----------------------------------------------------------------------------
Tabbed by: InSanAndreas
Email: leeaustin1990@hotmail.com

Tuning:Standard

Basically play the chords A, D and E in arpeggio

        [A]            [D]            [E]
e|-------0--------------2--------------0-----------------------------------|
B|-----2---2----------3---3----------0---0---------------------------------|
G|---2-------2------2-------2------1-------1-------------------------------|
D|-2-----------2--0-----------3--2-----------2-----------------------------|
A|-------------------------------------------------------------------------|
E|-------------------------------------------------------------------------|

This aint the exact order ofcourse, you can easily figure it out from this.


============================================================================    

Added On December 16th, 2013

SHARE

Comments

blog comments powered by Disqus

ADVERTISEMENT